» » »

Darkest Hour - No God Tabs

Artists:  A B C D E F G H I J K L M N O P Q R S T U V W X Y Z # 

No God Tabs

(ver. 2) Click to play this song!
Darkest Hour
 Rating:
4/5 (4 votes)

 No God lessons Tabs too difficult? Try these video lessons and learn fast
 
                ||----------------------|---------------|
||----------------------|---------------|
||----------------------|---------------|
||---------7-6----------|---------7-----|
||-0-5-8-5-----7-8------|-0-5-8-5---7*--|
||-0----------------3-2-|-0-------------|

|-----|    
|-----|
|-----|
|-----|
|-3-2-|
|-3-2-|

||----------------------------------------------------------------------|
||----------------------------------------------------------------------|
||----------------------------------------------------------------------|
||----------------------------------------------------------------------|
||--8---------8-7-8-5---------8-7-8-10---10---10---8-10-7---7---7---7---|
||----0-0-0-0---------0-0-0-0----------8----8----8--------7---7---7---7-|

|-----------------|    
|-----------------|
|-----------------|
|-7h8p7----7------|
|-------10---10-8-|
|-----------------|
            
Submit corrections


        No God lessons Hard to play? Try these video lessons and learn fast No God lessons
        
↑ Back to top | Tablatures and chords for acoustic guitar and electric guitar, ukulele, drums are parodies/interpretations of the original songs. You may use it for private study, scholarship, research or language learning purposes only