» » »

Darkest Hour - Broken Wings Tabs

Artists:  A B C D E F G H I J K L M N O P Q R S T U V W X Y Z # 

Broken Wings Tabs

(ver. 1) Click to play this song!
Darkest Hour
 Rating:
4/5 (4 votes)
    Broken Wings lessons Tabs too difficult? Try these video lessons and learn fast
                Downtune 1/2 step, Drop-D, all 3 guitars (acoustics)

Gtr. 1 - Main Riff (maintain constant steady rhythm)
|--------------------------------------------------------------------------|
|--------------------------------------------------------------------------|
|:---------------------------------------------------------------------:---|
|-----7-------7-----10-8---8-----------------------------------------------|
|:--------7h8---8------------10-8p7----7-----7h8-8\-----8-----8---8p7--:---|
|-0-0---0---------0------0-----------10-10-10---------5---5-5---5----------|


Gtr. 2 - Play over top Main riff beginning on 5th repetition.
(attempted to note timing in relation to guitar 1)
|--------------------------------------------------------------------------|
|--------------------------------------------------------------------------|
|:---------------------------------------------------------------------:---|
|-5-(5)--7-7-(7)-----------8--8--8-5-(5)--------------8--(8)--7-(7)--5-----|
|:7-(5)--8-8-(8)----------10-10-10-7-(7)-------------10-(10)--8-(8)--7-:---|
|--------------------------------------------------------------------------|

Gtr. 3 - single simple repeated riff begins on(hard to hear sometimes)
|-----------------------|
|-----------------------|               **
|-:-------------------:-|       legend: 15 => mute
|--------**-------------|               **
|-:--15--1515--12-15--:-|    
|--------**-------------|

sorry if this is sketchy, lining up the timings was really hard seeing as this is my
first tab. I'm quite sure it's right tho. Lemme know if not.
         
            
Submit corrections

↑ Back to top | Tablatures and chords for acoustic guitar and electric guitar, ukulele, drums are parodies/interpretations of the original songs. You may use it for private study, scholarship, research or language learning purposes only