» » »

Danko Jones - Sticky Situation Tabs

Artists:  A B C D E F G H I J K L M N O P Q R S T U V W X Y Z # 

Sticky Situation Tabs

(ver. 1) Click to play this song!
Danko Jones
 Rating:
4/5 (4 votes)

 Sticky Situation lessons Tabs too difficult? Try these video lessons and learn fast
 
                Tuning: Standard EADGBE

This is my first tab, but it still is 100% right.
Please rate it ^_^


How this should be played:

Verse
Pre-Chorus
Chorus
Verse 2
Verse 
Pre-Chorus
Chorus
Pre-Chorus
Chorus 2
Solo
Verse 3
Chorus
Pre-Chorus
Chorus 3
Pre-Chorus
Chorus 3
Pre-Chorus

Verse

E|------------|              
B|------------|            
G|------------| 
D|--7-9--7-9--| 4x
A|--7-9--7-9--|
E|--5-7--5-7--| 

E|------------|              
B|------------|            
G|------------| 
D|--2-4--2-4--| 5x
A|--2-4--2-4--|
E|--0-2--0-2--|

E|------------|
B|------------|
G|------------|
D|--7-9--7-9--| 5x
A|--7-9--7-9--|
E|--5-7--5-7--|

Verse 2

E|------------|              
B|------------|            
G|------------| 
D|--7-9--7-9--| 2x
A|--7-9--7-9--|
E|--5-7--5-7--| 

Verse 3

E|------------|              
B|------------|            
G|------------| 
D|--7-9--7-9--| 4x
A|--7-9--7-9--|
E|--5-7--5-7--| 

E|------------|              
B|------------|            
G|------------| 
D|--2-4--2-4--| 10x
A|--2-4--2-4--|
E|--0-2--0-2--|

Pre-chorus

E|-------------------|              
B|-------------------|            
G|--9999-11-9-7777-9-| 
D|--9999-11-9-7777-9-| 
A|--7777-9--7-5555-7-|
E|-------------------|

Chorus

E|-------------------------|              
B|-------------------------|            
G|--------------------77---| 
D|--77-9--77-9--77-9--77-7-| 4x
A|--77-9--77-9--77-9--55-7-|
E|--55-7--55-7--75-7-----5-| 

Chorus 2

E|-------------------------|              
B|-------------------------|            
G|--------------------77---| 
D|--77-9--77-9--77-9--77-7-| 2x
A|--77-9--77-9--77-9--55-7-|
E|--57-7--75-7--55-7-----5-| 

Chorus 3

E|-------------------------|              
B|-------------------------|            
G|--------------------77---| 
D|--77-9--77-9--77-9--77-7-| 1x
A|--77-9--77-9--77-9--55-7-|
E|--57-7--75-7--55-7-----5-| 

Solo

E|-------------------------------------------------------------------|  
B|-------------------------------------------------------------------|            
G|-----------------------------------9-7-9-7-9-7---7------9-7-9-7-9-7| 
D|------------------------9999999999-------------99-999999-----------|
A|-------------------------------------------------------------------|
E|--2-2222-4444-5555-7777--------------------------------------------|

E|----------------------|
B|----------------------|
G|--1414----------------|
D|------1616-1414-1212--| 2x
A|----------------------|
E|----------------------| 

E|-------------------------------------------|
B|-------------------------------------------|
G|--------------------------------------14b--|
D|--14b-14b-14-12------------------14b-------|
A|----------------14-12-14--9--12------------|
E|-------------------------------------------|

E|--------------------------------------|
B|--------------------------------------|
G|--1414141414141414--1616161616161616--|
D|--------------------------------------| 2x
A|--------------------------------------|
E|--------------------------------------|

Please rate it
And if there are good ratings there will be more tabs ^_^
I might do on request
            
Submit corrections


        Sticky Situation lessons Hard to play? Try these video lessons and learn fast Sticky Situation lessons
        
↑ Back to top | Tablatures and chords for acoustic guitar and electric guitar, ukulele, drums are parodies/interpretations of the original songs. You may use it for private study, scholarship, research or language learning purposes only