» » »

Daft Punk - Within Tabs

Artists:  A B C D E F G H I J K L M N O P Q R S T U V W X Y Z # 

Within Tabs

(ver. 2) Click to play this song!
Daft Punk
 Rating:
4.3/5 (10 votes)

 Within lessons Tabs too difficult? Try these video lessons and learn fast
 
                Tuning: standard

Haven't figured out the intro just yet but it's based on the same chords


    Bbm             F#sus2             Ebm      Gbsus2  
e|--------9--6---------------------------------------------------------------|
B|------6-------------------9--------------7-------------13-----11-----------|
G|----6------------------11-----11-------8---8--------13----13---------------|
D|--8-----------------11---------------8-----------13------------------------|
A|-----------------9-----------------6----------11---------------------------|
E|---------------------------------------------------------------------------|


The last note should be played on the repeat at the same time as the Bbm arpeggio. So the second time : 


e|--6-----9--6----
B|------6--------
G|----6----------
D|--8------------
A|---------------
E|---------------

            
Submit corrections


        Within lessons Hard to play? Try these video lessons and learn fast Within lessons
        
↑ Back to top | Tablatures and chords for acoustic guitar and electric guitar, ukulele, drums are parodies/interpretations of the original songs. You may use it for private study, scholarship, research or language learning purposes only