» » »

Daft Punk - Within Tabs

Artists:  A B C D E F G H I J K L M N O P Q R S T U V W X Y Z # 

Within Tabs

(ver. 3) Click to play this song!
Daft Punk
 Rating:
4.3/5 (9 votes)

 Within lessons Tabs too difficult? Try these video lessons and learn fast
 
                [Intro]

          These are Amb with some differences
e|--------------|-------------|-------------|---------------|
B|--------------|-------------|-------------|---------------|
G|-------4------|------4------|------4------|--------4------|
D|-----6-----6--|----6-----6--|----6-----6--|------6-----6--|
A|---5----------|--6----------|--5----------|----6----------|
E|-4-------4----|--------4----|--------4----|--4-------4----|

e|--------------|---------------|---------------|-----------|
B|--------------|---------------|---------------|-----------|
G|-------4------|--------4------|--------4------|-----------|
D|-----6-----6--|------6-----6--|------6-----6--|-----------|
A|---6----------|----6----------|----5----------|-----------|
E|-7-------7----|--7-------7----|--7-------7----|-----------|


The other pattern is repeated during the whole song :

  Am                F                 Dm                G
e|-----------------|-----------------|-------1---------|-----------------|
B|-------1---------|-----------------|-----3-----3-----|-------0---------|
G|-----2-----2-----|-------2---0-----|---2-----------2-|-----0-----0---2-|
D|---2-----------2-|-----3---------3-|-0-------0---0---|---0-------------|
A|-0-------0---0---|---3-------------|-----------------|-----------------|
E|-----------------|-1-------1---1---|-----------------|-3-------3---3---|            
Submit corrections


        Within lessons Hard to play? Try these video lessons and learn fast Within lessons
        
↑ Back to top | Tablatures and chords for acoustic guitar and electric guitar, ukulele, drums are parodies/interpretations of the original songs. You may use it for private study, scholarship, research or language learning purposes only