» » »

Daft Punk - Contact Tabs

Artists:  A B C D E F G H I J K L M N O P Q R S T U V W X Y Z # 

Contact Tabs

(ver. 2) Click to play this song!
Daft Punk
 Rating:
4.3/5 (27 votes)

 Contact lessons Tabs too difficult? Try these video lessons and learn fast
 
                [VERSE ONE]
e|-------------|-------------|-----------|-----------|
B|-1----0-1-3--|-1----0-1-3--|-1----0----|-1----3----|
G|-2-----------|-2-----------|-2---------|-----------|
D|-3-----------|-3-----------|-5---------|-----------|
A|-------------|-------------|-----------|-----------|
E|-------------|-------------|-----------|-----------|

e|-------------|-------------|-----------|-----------|
B|-1----0-1-3--|-1----0-1-3--|-1----0----|-1----3----|
G|-2-----------|-2-----------|-2---------|-----------|
D|-3-----------|-0-----------|-5---------|-----------|
A|-------------|-------------|-----------|-----------|
E|-------------|-------------|-----------|-----------| REPEAT 4X


[VERSE TWO]
(pre-verse)
e|------------|   |-0--------|-1--------|-0--------|------------|
B|------------|   |-1--------|-1--------|-1--------|-3----------|
G|------------|   |-2--------|-0--------|-0--------|-0----------|
D|------------|   |-2--------|-3--------|-2--------|-0----------|
A|----5-2-----|   |----------|-3--------|-3--------|----5-2-----|
E|--------3-0-|   |----------|----------|----------|-3------3-0-| REPEAT 4X


[SOLO]
(tab with fingers like: -p0-h3-h5-h7- etc.)
e|-0-3-5-7-0-3-5-7-0-3-5-7-0-3-5-7-|-1-3-5-7-1-3-5-7-1-3-5-7-1-3-5-7-|
B|---------------------------------|---------------------------------|
G|---------------------------------|---------------------------------|
D|---------------------------------|---------------------------------|
A|---------------------------------|---------------------------------|
E|---------------------------------|---------------------------------|

e|-7-10-12-14-7-10-12-14-7-10-12-14-7-10-12-14-|-5-7-9-12-5-7-9-12-5-7-9-12-5-7-9-12-|
B|---------------------------------------------|-------------------------------------|
G|---------------------------------------------|-------------------------------------|
D|---------------------------------------------|-------------------------------------|
A|---------------------------------------------|-------------------------------------|
E|---------------------------------------------|-------------------------------------| REPEAT 19X            
Submit corrections


        Contact lessons Hard to play? Try these video lessons and learn fast Contact lessons
        
↑ Back to top | Tablatures and chords for acoustic guitar and electric guitar, ukulele, drums are parodies/interpretations of the original songs. You may use it for private study, scholarship, research or language learning purposes only