» » »

Daft Punk - Contact Tabs

Artists:  A B C D E F G H I J K L M N O P Q R S T U V W X Y Z # 

Contact Tabs

(ver. 1) Click to play this song!
Daft Punk
 Rating:
4/5 (4 votes)

 Contact lessons Tabs too difficult? Try these video lessons and learn fast
 
                Lead Guitar 
e|---------------------------------------------------------------------------|
B|---------------------------------------------------------------------------|
G|---------------------------------------------------------------------------|
D|---------9--12---------9--12---------9--12----------9--12------------------|
A|--9--12---------9--12---------9--12----------9--12-------------------------|
E|---------------------------------------------------------------------------|

e|---------------------------------------------------------------------------|
B|---------------------------------------------------------------------------|
G|---------------------------------------------------------------------------|
D|----------9--12----------9--12----------9--12----------9--12---------------|
A|--10--12---------10--12---------10--12---------10--12----------------------|
E|---------------------------------------------------------------------------|

e|---------------------------------------------------------------------------|
B|---------------------------------------------------------------------------|
G|-----7--9--11-----7--9--11-----7--9--11------7--9--11----------------------|
D|--9------------9------------9-------------9--------------------------------|
A|---------------------------------------------------------------------------|
E|---------------------------------------------------------------------------|

e|---------------------------------------------------------------------------|
B|---------------------------------------------------------------------------|
G|---------------------------------------------------------------------------|
D|-----7--9--11-----7--9--11-----7--9--11-----7--9--11-----------------------|
A|--9------------9------------9------------9---------------------------------|
E|---------------------------------------------------------------------------|

Rythem Getar (Really fast fill)
e|---------------|-----------------------------------------------------------|
G|---------------|-----------------------------------------------------------|
D|---------------|---4----------5----------4--------2------------------------|
A|-7-5-2-0-------|---2----------2----------0--------0------------------------|
E|---------------|-----------------------------------------------------------|

e|------------|---------------------------------------------------------------|
B|------------|---------------------------------------------------------------|
G|-Look-^-----|---------------------------------------------------------------|
D|-up---|-----|-----14----------15----------14-------12-----------------------|
A|------------|-----12----------12----------10-------10-----------------------|
E|------------|---------------------------------------------------------------|

Bass 
(in beginning)
G|---------------------------------------------------------------------------|
D|---------------------------------------------------------------------------|
A|---------------------------------------------------------------------------|
E|-------------------7------------7-----------5--------5---------------------|

use root note(#) of Chord for bass, play on up beat later in the song
e|---------------------------------------------------------------------------|
B|---------------------------------------------------------------------------|
G|------------------7--------------------------------------------------------|
D|-------9----5-----7---7----------------------------------------------------|
A|-------9----5----(5)--7----------------------------------------------------|
E|------(7)--(3)-------(5)---------------------------------------------------|



Keyboard                  
                                 -O-       
           Ob                     
  ---------------------------------------------------
                                  O                  
F:---------O-----------Ob------------------------------
                                                  
  -O-------------------------------------------------
                       O          O                  
 b---------Ob------------------------------------------
   O                                                
  ---------------------------------------------------
                       O                              
  ----                                                 
   O                                         
Submit corrections


        Contact lessons Hard to play? Try these video lessons and learn fast Contact lessons
        
↑ Back to top | Tablatures and chords for acoustic guitar and electric guitar, ukulele, drums are parodies/interpretations of the original songs. You may use it for private study, scholarship, research or language learning purposes only