Home » C » Crowded House »

Crowded House - Weather With You Chords

Artists:  A B C D E F G H I J K L M N O P Q R S T U V W X Y Z # 

Weather With You Chords

(ver. 5) Click to play this song!
Crowded House
e|-0-0-0-0-0-0-0-0-|-0-0-0-0-0-0-0-0-0-|-----------------|---------------|
B|-5-5-5-5-5-5-5-5-|-5-5-5-5-5-5-5-5-5-|-7-8-7-5-3-0-3-0-|-3-2-------0-3-|
G|-----------------|-------------------|-----------------|-----2---2-----|
D|-----------------|-------------------|-----------------|---------------|
A|-----------------|-------------------|-----------------|---------------|
E|-----------------|-------------------|-----------------|---------------|

e|-0-0-0-0-0-0-0-0-|-0-0-0-0-0-0-0-0-0-|-----------------|---------------|
B|-5-5-5-5-5-5-5-5-|-5-5-5-5-5-5-5-5-5-|-7-8-7-5-3-0-3-0-|-3-2-----------|
G|-----------------|-------------------|-----------------|-----2---------|
D|-----------------|-------------------|-----------------|---------------|
A|-----------------|-------------------|-----------------|---------------|
E|-----------------|-------------------|-----------------|---------------|


                   Em7                 Asus4
Walking 'round the room singing Stormy Weather
     Em7             Asus4
at 57 Mount Pleasant Street
             Em7                        Asus4
Now it's the same room but everything’s different
                  Em7               Asus4
You can fight the sleep but not the dream


Dm                 C            Dm            C
      Things ain't cookin'              in my kitchen
Dm               C                   F
      Strange affliction        wash over me
Dm           C          Dm                    C
      Julius Caesar             and the Roman Empire
Dm             C             F        G
      Couldn't conquer  the blue sky


e|-0-0-0-0-0-0-0-0-|-0-0-0-0-0-0-0-0-0-|-----------------|---------------|
B|-5-5-5-5-5-5-5-5-|-5-5-5-5-5-5-5-5-5-|-7-8-7-5-3-0-3-0-|-3-2-------0-3-|
G|-----------------|-------------------|-----------------|-----2---2-----|
D|-----------------|-------------------|-----------------|---------------|
A|-----------------|-------------------|-----------------|---------------|
E|-----------------|-------------------|-----------------|---------------|

e|-0-0-0-0-0-0-0-0-|-0-0-0-0-0-0-0-0-0-|-----------------|---------------|
B|-5-5-5-5-5-5-5-5-|-5-5-5-5-5-5-5-5-5-|-7-8-7-5-3-0-3-0-|-3-2-----------|
G|-----------------|-------------------|-----------------|-----2---------|
D|-----------------|-------------------|-----------------|---------------|
A|-----------------|-------------------|-----------------|---------------|
E|-----------------|-------------------|-----------------|---------------|


               A
Everywhere you go you
                D
Always take the weather with you
               A                      D
Everywhere you go you always take the weather
               A
Everywhere you go you
                G
Always take the weather with you
               D                      G
Everywhere you go you always take the weather,
         A
Take the weather, the weather with you


e|-0-0-0-0-0-0-0-0-|-0-0-0-0-0-0-0-0-0-|-----------------|---------------|
B|-5-5-5-5-5-5-5-5-|-5-5-5-5-5-5-5-5-5-|-7-8-7-5-3-0-3-0-|-3-2-----------|
G|-----------------|-------------------|-----------------|-----2---------|
D|-----------------|-------------------|-----------------|---------------|
A|-----------------|-------------------|-----------------|---------------|
E|-----------------|-------------------|-----------------|---------------|


          Em7                Asus4
There's a small boat made of china
      Em7            Asus4
Going nowhere on the mantlepiece
     Em7                   Asus4
Do I lie like a loungeroom lizard
        Em7         Asus4
Or do I sing like a bird released


               A
Everywhere you go you
                D
Always take the weather with you
               A                      D
Everywhere you go you always take the weather
               A
Everywhere you go you
                G
Always take the weather with you
               D                      G
Everywhere you go you always take the weather,
         A
Take the weather, the weather with you



e|-0-0-0-0-0-0-0-0-|-0-0-0-0-0-0-0-0-0-|-------------------|-------------|
B|-5-5-5-5-5-5-5-5-|-5-5-5-5-5-5-5-5-5-|-7-8-5--12--12--12-|-10--8--5--3-|
G|-----------------|-------------------|-------------------|-------------|
D|-----------------|-------------------|-------------------|-------------|
A|-----------------|-------------------|-------------------|-------------|
E|-----------------|-------------------|-------------------|-------------|

e|-0-0-0-0-0-0-0-0-|-------------------|-------------------|
B|-5-5-5-5-5-5-5-5-|-7-8-7-5-3-0-0-3-5-|-------------------|
G|-----------------|-------------------|-2p-2p-2p-2p-2p-2p-|
D|-----------------|-------------------|-------------------|
A|-----------------|-------------------|-------------------|
E|-----------------|-------------------|-------------------|

e|-------------------|
B|-------------------|
G|-2p-2p-2p-2p-2p-2p-|
D|-------------------|
A|-------------------|
E|-------------------|


               A
Everywhere you go you
               D
Always take the weather with you
               A                      D
Everywhere you go you always take the weather
               A
Everywhere you go you
                G
Always take the weather with you
               D                      E
Everywhere you go you always take the weather,
         G            A            D
Take the weather, the weather with you


               A
Everywhere you go you
                D
Always take the weather with you
               A                      D
Everywhere you go you always take the weather
               A
Everywhere you go you
                G
Always take the weather with you
               D                      E
Everywhere you go you always take the weather,
         G            A            D
Take the weather, the weather with you            
Submit corrections

↑ Back to top | Tablatures and chords for acoustic guitar and electric guitar, ukulele, drums are parodies/interpretations of the original songs. You may use it for private study, scholarship, research or language learning purposes only