Home » C » Crowded House »

Crowded House - Weather With You Bass

Artists:  A B C D E F G H I J K L M N O P Q R S T U V W X Y Z # 

Weather With You Bass

(ver. 1) Click to play this song!
Crowded House
Crowded House - Weather With You

This isn't strictly the exact way it's played on the original.
However, this is what I've been gigging for the last year, so it's good enough to get you going.

Notes roughly in time with the vocal line as sung. Enjoy!

(Walking round the)
   room singing stormy weather     at fifty-seven   mount pleasant street
G|------------------------------------------------------------------------|
D|------------------------------------------------------------------------|
A|--7-7--------777---99--00-----0-0-4--5--6--7--7-----------777—--99--00--|
E|------------------------------------------------------------------------|

      Well it’s the same room but ev’rything’s different…
G|------------------------------------------------------------------------|
D|------------------------------------------------------------------------|
A|-0-0-4---5-----6---7-7---------7—-7--7--9-9---0-0-----------------------|
E|------------------------------------------------------------------------|

   You can fight the sleep but not the   dream…
G|------------------------------------------------------------------------|
D|------------------------------------------------------------------------|
A|-0-0-4---5-----6---7-7-------7-7-7-----99----00-------------0-0-4-5-4---|
E|------------------------------------------------------------------------|


      Things ain’t cookin’             in my kitchen
G|--------------------------------------------------------------|
D|--------------------------------------------------------------|
A|--5-5----------0-3-—3-—0--3---5-5---------0-3-—3-—0--3--------|
E|--------------------------------------------------------------|

      Strange afflictions wash  over       me      
G|--------------------------------------------------------------|
D|--------------------------------------------------------------|
A|--5-5---------0-3-3--0--3------------------------3—3----------|
E|----------------------------1—-1—-1—-0—-1--1------------------|

      Julius Caesar             and the roman empire
G|--------------------------------------------------------------|
D|--------------------------------------------------------------|
A|--5-5-------0-3-—3-—0--3---5-5-------------0-3-—3-—0--3-------|
E|--------------------------------------------------------------|

        Couldn’t conquer    the blue skyyyyyyyyy…   
G|--------------------------------------------------------------|
D|--------------------------------------------------------------|
A|--5-5---------0-3-3--0--3-------------------------------------|
E|------------------------------1—1—1—1—1-1-1—1-3-3-3-3-3-3-3-3-| (Back to verse)

 (lead in to chorus)                      Everywhere you                
G|-----------------------------------------------------------|
D|-----------------------------------------------------------|
A|--7-7--------777---99--00-----0-0-4-4-5-5-7-7--------------|
E|-----------------------------------------------------------|

    Go   you always take the weather with you      Everywhere you
G|-----------------------------------------------------------|
D|-----------------------------------------------------------|
A|--0-0---0----0-0---0----0-----5----5---5--5--5--5--5-------|
E|-----------------------------------------------------------|

    Go   you always take the weather        Everywhere you
G|-----------------------------------------------------------|
D|------------------------------------------4-4---7-7--------|
A|--0-0---0----0-0---0----0-----5-5---7-7--------------------|
E|-----------------------------------------------------------|

    Go   you always take the weather with you      Everywhere you
G|-----------------------------------------------------------|
D|-----------------------------------------------------------|
A|--0-0---0----0-0---0----0----------------------------------|
E|------------------------------3--3—-3—-3-—3—-3—-3—-3-------|

   Go you always take the weather, the weather with    (you)
G|-----------------------------------------------------------|
D|-----------------------------------------------------------|
A|-------------------------------------------------------7-7-|
E|--2--2--2--2--2--2--2--2--3--3--3--3--5--5--5--5-----------| (Back to verse)

(Last chorus)

   Go you always take the weather, the weather with you
G|-----------------------------------------------------------|
D|-----------------------------------------------------------|
A|---------------------------------------------------5-------|(ring out)
E|--2--2--2--2--2--2--2--2--3--3--3--3--5--5--5--5-----------|

   
G|-----------------------------------------------------------|
D|-----------------------------------------0-12\-------------|
A|-4-5-—4-5—-4-5-—4-5-—4-5------0—12\--0-2-------------------|
E|--------------------------0-2------------------------------| (Repeat last half)

      …take the weather with you everywhere you
G|-----------------------------------------------------------|
D|-----------------------------------------------------------|
A|------0----------------------------------------------------|
E|--0-2---12\-----3--3--3--3--3--3--3--3---------------------|

   Go you always take the   weather,      take the 
G|-----------------------------------------------------------|
D|-----------------------------------------------------------|
A|-----------------------------------------------------------|
E|--2--2--2--2--2--2--2--2--0--0--0--0--0--0--0--0-----------|

   weather, the weather with you
G|-----------------------------------------------------------|
D|-----------------------------------------------------------|
A|---------------------------5-------------------------------|
E|--3—-3—-3--3—-5—-5—-5--5-----------------------------------|



(Alt verse bass line used during solo)
G|------------------------------------------------------------------------|
D|----------------------------------9--7----------------------------------|
A|--7-7--------777---99--00-----0-0-------9--7--7-----------777--99-00----|
E|------------------------------------------------------------------------|
            
Submit corrections

↑ Back to top | Tablatures and chords for acoustic guitar and electric guitar, ukulele, drums are parodies/interpretations of the original songs. You may use it for private study, scholarship, research or language learning purposes only