Home » C » Cream »

Cream - Spoonful Bass

Artists:  A B C D E F G H I J K L M N O P Q R S T U V W X Y Z # 

Spoonful Bass

(ver. 3) Click to play this song!
Cream
Cream - Spoonful



   Intro/Chorus
G|-------------------------------------|
D|-------------------------------------|
A|-------------------------------------|
E|--3hb---0--0---3hb---0--0---3hb---0--|

   Verse
G|-------------------|-------|
D|-------------------|-5-----|
A|--5h7---5-----5--7-|----7--|
E|-----------7-------|-------|
            
Submit corrections

↑ Back to top | Tablatures and chords for acoustic guitar and electric guitar, ukulele, drums are parodies/interpretations of the original songs. You may use it for private study, scholarship, research or language learning purposes only