» » »

Cream - Sitting On Top Of The World Tabs

Artists:  A B C D E F G H I J K L M N O P Q R S T U V W X Y Z # 

Sitting On Top Of The World Tabs

(ver. 4) Click to play this song!
Cream
 Rating:
4/5 (4 votes)

 Sitting On Top Of The World lessons Tabs too difficult? Try these video lessons and learn fast
 
                Gtr I (E A D G B E) - 'Eric Clapton - Electric Guitar 1'
Gtr II (E A D G B E) - 'Eric Clapton - Electric Guitar 2'


 Intro
  Q.=46
  N.C.        G9                      F#G9           F#G9
 2/4         12/8
  Gtr I
  W            H.                           Q.            E   S S S    +S
|-----------|---------------------------------------------------3----------|
|-----------|-------------------------------------------------3------------|
|-----------|---------------------------------------------5b7-----5pb7r(5)-|
|-----------|--------------------------------------------------------------|
|-----------|--------------------------------------------------------------|
|-----------|--------------------------------------------------------------|
|
| Gtr II
| E  e e  e    S   S  S S  e  S  S  S S  e  S   S  S S  e Q.
|-----------|--------------------------------------------------------------|
|-----------|-10--10-10-9-10---------------10--10-10-9-10------------------|
|-----------|-10--10-10-9-10-10-10-10-9-10-10--10-10-9-10------------------|
|-----------|--9---9--9-8--9--9--9--9-8--9--9---9--9-8--9------------------|
|------8-10-|-10--10-10-9-10-10-10-10-9-10-10--10-10-9-10------------------|
|---10------|--------------------------------------------------------------|


             F#G9           F#G9          F#G9
   T T  S  E    E  Q.             Q          S S S  S     S S S     +S
|---------------------------------------------------6b6.5-8---8pb10r(8)-|
|------------------------------------------------8----------8-----------|
|--3h5p=3h=5-----------------------------------7------------------------|
|-----------------------------------------------------------------------|
|-----------------------------------------------------------------------|
|-----------------------------------------------------------------------|
|
|  S    S  S S  e  S   S  S S  e  S  S  S S  e   Q.
|-----------------------------------------------------------------------|
|-10---10-10-9-10-10--10-10-9-10-10-10-10-9-10--------------------------|
|-10---10-10-9-10-10--10-10-9-10-10-10-10-9-10--------------------------|
|--9----9--9-8--9--9---9--9-8--9--9--9--9-8--9--------------------------|
|-10---10-10-9-10-10--10-10-9-10-10-10-10-9-10--------------------------|
|-----------------------------------------------------------------------|


  C9    B9C9      B9C9       B9C9
  E   E   E E   E   E Q.          S   Q       +S
|-----------6--------------------------------------|
|-8----------------------------------15pb18r=(15)--|
|--------------------------------12----------------|
|--------------------------------------------------|
|--------------------------------------------------|
|--------------------------------------------------|
|
| S S S S e S S S S e S  S S S e  Q.
|-------------------3-3--3-3-2-3-------------------|
|-3-3-3-2-3-3-3-3-2-3-3--3-3-2-3-------------------|
|-3-3-3-2-3-3-3-3-2-3-3--3-3-2-3-------------------|
|-2-2-2-1-2-2-2-2-1-2-2--2-2-1-2-------------------|
|-3---------3-3-3----------------------------------|
|--------------------------------------------------|


                  B9C9          B9C9       B9  C9  N.C.
   S  T  T  T  S.    +E  Q.          S S S S   S S S S E     E
|-----------------------------------^3-------------------------|
|-13-11h13p11-13----(13)------------^3-3-6---------------------|
|------------------------------------------5b7-5-3-5---3b3.5---|
|----------------------------------------------------5-------5-|
|--------------------------------------------------------------|
|--------------------------------------------------------------|
|
|  S  S     S     S   e  S  S S S e  S S S S   e   e   e     e
|---------------------------------3--------2---3---------------|
|--3--3-----3-----2---3--3--3-3-2-3--3-3-3-2---3---------------|
|--3--3-----3-----2---3--3--3-3-2-3--3-3-3-2---3---------------|
|--2--2-----2-----1---2--2--2-2-1-2--2-2-2-1---2-------3-----5-|
|--3--3-----3------------3-----------3-3-3-2---3---5-----------|
|--------------------------------------------------------------|


            F#G7   N.C.
  +Q.   Q.    Q.   S S S S S S
|---------------------------------|
|----------------------3-6-3------|
|------------------5-5-------5b7--|
|-(5)-----------------------------|
|---------------------------------|
|---------------------------------|
|
|  Q.   Q   E Q.   E   E   E
|---------------------------------|
|---------------------------------|
|--4--------3-4-------------------|
|--3----3---2-3-------------------|
|-------5---4-5----3---4---5------|
|---------------------------------|


  D7+9                                     N.C.
  Q.   S   S S   S S   S S   S S   S S   S   S   S S S S S
|--------------------------------------------------------------|
|-3--------3-----3-----3-----3-----3-----3-------3-------------|
|------5b7---5b7---5b7---5b7---5b7---5b7-----5b7---5-3-5-3b3.5-|
|--------------------------------------------------------------|
|--------------------------------------------------------------|
|--------------------------------------------------------------|
|
| Q.   E     Q           Q.                a E     E   E
|--------------------------------------------------------------|
|-6----------------------6-------------------------------------|
|-5----------------------5-------------------------------------|
|-4----------4-----------4-----------------3h5-----3-----------|
|-5----5-----------------5-----------------------------5-------|
|--------------------------------------------------------------|


  ~~
  Q.        Q.   H.
|--------------------------------|
|--------------------------------|
|--------------------------------|
|-5------------------------------|
|--------------------------------|
|--------------------------------|
|
|     |-3-|
| Q   S S S Q.   E  E  E E E E
|--------------------------------|
|--------------------------------|
|-3---------3--------------------|
|-----5S3S5------5\------5---5---|
|---------------------/5---------|
|--------------------------------|


   Q.   a E E E Q.     Q       S  S     Q.   E   S S E Q  E   Q.
|-----------------------------------|---------------------------------||
|-------------3----------------8h10-|---8\-----------3----------------||
|-------3h4-----5/-----9------------|------------3h4------------------||
|-----------------------------------|---------------------------------||
|-----------------------------------|------------------5--------------||
|-----------------------------------|---------------------------------||
|
| +Q.   a E E E Q.   a E E     E      a Q.   S S S S E Q  S S E  E e
|-----------------------------------|---------------------------------||
|-----------------------------------|---------------------------------||
|-----------------------------------|---------------------------------||
|-(5)---3h5-3-----------------------|-3s5------------5--------3--4-5--||
|-------------5-3----1h3-1b1.5------|------------5-7---5--5-5---------||
|------------------------------3----|--------5-7----------------------||


 1st Verse
  G9                               F#9
   W
|------------------------------------|
|------------------------------------|
|------------------------------------|
|------------------------------------|
|------------------------------------|
|------------------------------------|
|
|  E  E  E  E  E  E  E  E  E  E  E E
|----------10----10-10-10-10---------|
|-10-10-10-10-10-10-10-10-10-10-10-9-|
|-10-10-10-10-10-10-10-10-10-10-10-9-|
|--9--9--9-----------9--9--9--9--9-8-|
|-10-10-10-------------------10-10-9-|
|------------------------------------|


  G9
                                               ~~
   H.                 S S  S S      S S  e     Q
|----------------------------6b6.5--8----8b10--------|
|--------------------------8----------8--------8-----|
|-----------------------7----------------------------|
|----------------------------------------------------|
|----------------------------------------------------|
|----------------------------------------------------|
|
|  E   E  E  E  E  E  E    E        E    E     E  E
|----------------------------------------------------|
|-10--10-10-10-10-----------------------10----10-10--|
|-10--10-10-10-10-10-10---10-------10---10----10-10--|
|--9---9--9--9--9--9--9----9--------9----9-----9--9--|
|-10--10-10----10-10-10---10-------10---10----10-10--|
|----------------------------------------------------|


  C9        B9C9    C#9
  W
|-------------------------|
|-------------------------|
|-------------------------|
|-------------------------|
|-------------------------|
|-------------------------|
|
| E E E E E E E E E E E E
|-3-3-3-3---------------4-|
|-3-3-3-3-3-2-3-3-3-4-4-4-|
|-3-3-3-3-3-2-3-3-3-4-4-4-|
|---2-2-2---1-2-2-2-3-3-3-|
|-----------2-3-3---4-4-4-|
|-------------------------|


  C9                         N.C.      G7      G#G7   N.C.
  H.           E     S     S E Q   E   W
|------------------------------------|----------------------|
|------------------------------------|----------------------|
|--------------3b3.5-5b5.5-3-5-5---3-|----------------------|
|------------------------------------|----------------------|
|------------------------------------|----------------------|
|------------------------------------|----------------------|
|
| E  E E E E E E     E       E e e e   Q.   Q  E Q.   E E E
|-3------------------3---------------|----------------------|
|-3--3-3-3-3-3-3-----3---------------|----------------------|
|-3--3-3-3-3-3-3-----3---------------|-4----4--5-4----------|
|-2--2-2-2-2-2-2-----2-----------3-5-|-3----3--4-3----------|
|-3----------3-3-----3-------3-5-----|-5----5--6-5----3-4-5-|
|------------------------------------|-3--------------------|


  D7+9                            N.C.
  H.         S    +S  E S     +S  a Q   E   W
|-----------------------------------------|-----------------------------|
|------------8b10-(8)---8pb10r(8)-6h8-----|-----------------------------|
|-----------------------------------------|-----------------------------|
|-----------------------------------------|-----------------------------|
|-----------------------------------------|-----------------------------|
|-----------------------------------------|-----------------------------|
|
|                                              |-3-|
| Q.   E E E Q.                   a E E E   Q  S S S Q.   E  E  E E E E
|-----------------------------------------|-----------------------------|
|-6------6---6----------------------------|-----------------------------|
|-5------5---5----------------------------|-3--------3------------------|
|-4------4---4--------------------3h5-3---|----5S3S5------5\------5---5-|
|-5----5-5-5-5--------------------------5-|--------------------/5-------|
|-----------------------------------------|-----------------------------|


                                        ~~
                                                             |--3--|
   Q.   a Q   E Q.      S S S S e       Q   E E   S S S S Q  S S   S Q.
|-------------------------3-5---5b7-|---3-----------------------------------||
|-------------3--------/5-----5-----|-------------6p3---3-3-----------------||
|-------3h4-----5-------------------|------------------------5-3------------||
|-----------------------------------|------------------------------5--------||
|-----------------------------------|---------------------------------------||
|-----------------------------------|---------------------------------------||
|
| +Q.   a E E E Q.   a  E   E   E     a Q.    S S S S E   Q  S   S   E  E E
|-----------------------------------|---------------------------------------||
|-----------------------------------|---------------------------------------||
|-----------------------------------|---------------------------------------||
|-(5)---3h5-3-----------------------|-3s5-------------5--------------3--4-5-||
|-------------5-3----1h=3---1-------|-------------5h7-----5--5---5----------||
|-------------------------------3---|---------5h7---------------------------||


 2nd Verse
  G9       F#G9          F#G9          F#G9
   W
|------------------------------------------------|
|------------------------------------------------|
|------------------------------------------------|
|------------------------------------------------|
|------------------------------------------------|
|------------------------------------------------|
|
|  S  S  S S  e  S  S  S S  e  S  S  S S  e Q.
|------------------------------------------------|
|-10-10-10-9-10-10-10-10-9-10-10-10-10-9-10------|
|-10-10-10-9-10-10-10-10-9-10-10-10-10-9-10------|
|--9--9--9-8--9--9--9--9-8--9--9--9--9-8--9------|
|-10-10-10-9-10-10-10-10-9-10-10-10-10-9-10------|
|------------------------------------------------|


            F#G9             F#G9                F#9  G9
   Q.             E     E       +E   E.           +S   E       E   Q
|----------------------12b14---(12)-------------------------------13b15=====|
|----------------------13b15---(13)-13pb15r======(13)-11b11.5---------------|
|-------------------------------------------------------------12------------|
|---------------------------------------------------------------------------|
|---------------------------------------------------------------------------|
|---------------------------------------------------------------------------|
|
|  S   S  S S  e  S  S  S    S   e   S      S  S   S   e       Q.
|---------------------------------------------------------------------------|
|-10--10-10-9-10-10-10-10----9--10--10-----10-10---9--10--------------------|
|-10--10-10-9-10-10-10-10----9--10--10-----10-10---9--10--------------------|
|--9---9--9-8--9--9--9--9----8---9---9------9--9---8---9--------------------|
|-10--10-10-9-10-10-10-10----9--10--10-----10-10---9--10--------------------|
|---------------------------------------------------------------------------|


  C9        B9C9       B9C9       B9C9
  Gtr I
    ~~~~~
   +Q.          Q.         H.
|-(13)r------------------------------------|
|------------------------------------------|
|------------------------------------------|
|------------------------------------------|
|------------------------------------------|
|------------------------------------------|
|
| Gtr II
|   S   S S S e S  S S S e S  S S S e Q.
|------------------------------------------|
|---3---3-3-2-3-3--3-3-2-3-3--3-3-2-3------|
|---3---3-3-2-3-3--3-3-2-3-3--3-3-2-3------|
|---2---2-2-1-2-2--2-2-1-2-2--2-2-1-2------|
|---3---3-3-2-3------------3--3-3-2-3------|
|------------------------------------------|


         B9C9      B9C9           B9C9      N.C.
                                ~
  Q.         E   S S S S E      Q     E     Q
|------------------------8b10---------6b6.5-------|
|----------------8-----8--------8-----------------|
|-------------------------------------------------|
|-------------------------------------------------|
|-------------------------------------------------|
|-------------------------------------------------|
|
| S  S S S e S S S S e   S    S S S e E     E a E
|-------------------------------------------------|
|-3--3-3-2-3-3-3-3-2-3---3----3-3-2-3-------------|
|-3--3-3-2-3-3-3-3-2-3---3----3-3-2-3-------------|
|-2--2-2-1-2-2-2-2-1-2---2----2-2-1-2---------3h5-|
|-3--3-3-2-3-3-3-3-2-3---3----3-3-2-3-------5-----|
|-------------------------------------------------|


  G7           N.C.    D7+9                           N.C.
  W                     Q   S S E S S S S     S  S Q    +Q.
|--------------------|----------5-3-----------------------------|
|--------------------|--------3-----3---3b3.5-------------------|
|--------------------|----------------5-------3-----------------|
|--------------------|---------------------------5--------------|
|--------------------|-----------------------------5----(5)-----|
|--------------------|------------------------------------------|
|
| H.      Q.   E E E    H.                    Q.      a  E  E E
|--------------------|------------------------------------------|
|--------------------|-^6---------------------6-----------------|
|-4-------4----------|-^5---------------------5-----------------|
|-3-------3----------|-^4---------------------4-------3h=5--3---|
|-5-------5----3-4-5-|-^5---------------------5---------------5-|
|-3------------------|------------------------------------------|


  W
|-------------------------------|
|-------------------------------|
|-------------------------------|
|-------------------------------|
|-------------------------------|
|-------------------------------|
|
|    |-3-|
| Q  S S S Q.   E  E  E E E E
|-------------------------------|
|-------------------------------|
|-3--------3--------------------|
|----5S3S5------5\------5---5---|
|--------------------/5---------|
|-------------------------------|


   Q.   a Q   E Q.     S S  S     S a  e
|----------------------------------------|
|-------------3----------8-10-------8h10-|
|-------3h4-----5/-----9----------9------|
|----------------------------------------|
|----------------------------------------|
|----------------------------------------|
|
| +Q.   a E E E Q.   a E    E          E
|----------------------------------------|
|----------------------------------------|
|----------------------------------------|
|-(5)---3h5-3----------------------------|
|-------------5-3----1h3----1b1.5--------|
|--------------------------------------3-|


    Q.   Q       S     S Q.      E     S S E
|------------------------------------------3-||
|---8------------------------------------3---||
|----------------3b3.5-----------3b3.5-4-----||
|----------------------5---------------------||
|------------------------5-------------------||
|--------------------------------------------||
|
| a Q.   S S S S E       Q   S S E     E   e
|--------------------------------------------||
|--------------------------------------------||
|--------------------------------------------||
|-3s5------------5---------------3-----4---5-||
|------------5h7---------5---5-5-------------||
|--------5h7---------------------------------||


 Guitar Solo
  G9        F#G9           F#G9             F#G9
   ~~~                                                          ~~~
   Q.            +Q           s S  Q.            S  S S S S     S
|-----------------------------6-----------------------6-8-8pb10---|
|--8-------------(8)----------6---------------------8-----------8-|
|------------------------------------------------7----------------|
|-----------------------------------------------------------------|
|-----------------------------------------------------------------|
|-----------------------------------------------------------------|
|
|  S   S  S S  e  S   S  S S  e    S   S  S S  e Q.
|-----------------------------------------------------------------|
|-10--10-10-9-10-10--10-10-9-10---10--10-10-9-10------------------|
|-10--10-10-9-10-10--10-10-9-10---10--10-10-9-10------------------|
|--9---9--9-8--9--9---9--9-8--9----9---9--9-8--9------------------|
|-10--10-10-9-10-10--10-10-9-10---10--10-10-9-10------------------|
|-----------------------------------------------------------------|


  G9        F#G9          F#G9                F#G9
 ~~~~~
                                  |--3---|
  +E      e    E  S  Q         S  S S    S  S S  E E  S S S S
|---------6-------------------------6----8------------6-8---8pb10--|
|-(8)-----------------------------8---------8----------------------|
|------------------------------7-----------------------------------|
|------------------------------------------------------------------|
|------------------------------------------------------------------|
|------------------------------------------------------------------|
|
|  S   S  S S  e  S  S  S S  e    S    S    S S  e Q.
|------------------------------------------------------------------|
|-10--10-10-9-10-10-10-10-9-10---10---10---10-9-10-----------------|
|-10--10-10-9-10-10-10-10-9-10---10---10---10-9-10-----------------|
|--9---9--9-8--9--9--9--9-8--9----9----9----9-8--9-----------------|
|-10--10-10-9-10-10-10-10-9-10---10---10---10-9-10-----------------|
|------------------------------------------------------------------|


  C9    B9C9        B9 C9       B9C9
          |3|
  E   S S E S E   S E.   E    E   E Q    E
|-----6---8-8p6----------6\-------------10b13-|
|-8---------------8-8-------------------------|
|---------------------------------------------|
|---------------------------------------------|
|---------------------------------------------|
|---------------------------------------------|
|
| S S S S e   S S S S  e S  S S S e Q.
|---------------------------------------------|
|-3-3-3-2-3---3-3-3-2--3-3--3-3-2-3-----------|
|-3-3-3-2-3---3-3-3-2--3-3--3-3-2-3-----------|
|-2-2-2-1-2---2-2-2-1--2-2--2-2-1-2-----------|
|-3-3-3-2-3---3-3-3-2--3-3--3-3-2-3-----------|
|---------------------------------------------|


         B9   C9             B9C9        B9C9N.C.
                      ~~
  S  S S  T T  E      Q.         a E   S S E  S S  S S  E
|---10-8-10p8--------------------------------------------------|
|-------------11b11.5-8----------6h8---6--------8-10---10b12---|
|--------------------------------------------/9------9---------|
|--------------------------------------------------------------|
|--------------------------------------------------------------|
|--------------------------------------------------------------|
|
| S  S S  S    e      S  S S S e   S S S S e  e    E    E
|--------------------------------------------------------------|
|-3--3-3--2----3------3--3-3-2-3---3-3-3-2-3-------------------|
|-3--3-3--2----3------3--3-3-2-3---3-3-3-2-3-------------------|
|-2--2-2--1----2------2--2-2-1-2---2-2-2-1-2-------3----5------|
|-3--3-3--2----3------3--3-3-2-3---3-3-3-2-3--3----------------|
|--------------------------------------------------------------|


  G7                   F#7          G7     N.C.
                                               ~~~
  Q.    E.     +S       +S   +S      +Q.   Q   E
|------10-----(10)-----(10)-(10)----(10)---------|
|-8----10pb12r(10)b12==(10)r(10)b12-(10)-------8-|
|------------------------------------------------|
|------------------------------------------------|
|------------------------------------------------|
|------------------------------------------------|
|
| Q.    Q                E            Q.   E E E
|------------------------------------------------|
|------------------------------------------------|
|-4-----4----------------3------------4----------|
|-3-----3----------------2------------3----------|
|-5-----5----------------4------------5----3h4h5-|
|-3----------------------2------------3----------|


  D7+9                      N.C.
 ~~~~~
  +Q.   Q.     S     S E  e   S      S S +S  a E
|------------------------------------------------|
|-(8)----------8b10==8-8r-8---8pb10====8r(8)-6h8-|
|------------------------------------------------|
|------------------------------------------------|
|------------------------------------------------|
|------------------------------------------------|
|
|  Q.   e  E E Q.           a e        e       e
|------------------------------------------------|
|--6-----------6---------------------------------|
|--5-----------5---------------------------------|
|--4-------4---4------------3h5--------3---------|
|--5----5----5-5-------------------------------5-|
|------------------------------------------------|


  +Q   S   S   S S E E S  S E a  E a E E a E
|--------------------------------------------|
|-(8)--6-------------------------------------|
|----------7---6S5-3-------------------------|
|--------------------5-3------3h=5-3h5---3h5-|
|-------------------------5------------------|
|--------------------------------------------|
|
|      |--3--|
|  Q   S S   S Q.      E    E    E   E E   E
|--------------------------------------------|
|--------------------------------------------|
|--3-----------3-----------------------------|
|------5S3S==5---------5\------------5-----5-|
|-------------------------------/5-----------|
|--------------------------------------------|


  +Q.     E E E a E  a Q    S S S     S S S
|-----------3--------------------------------|
|-----------3-6-------------6---3------------|
|---------------5s7--3h5------5-------3------|
|-(5)-----------------------------------5p3--|
|--------------------------------------------|
|--------------------------------------------|
|
| +q.   a E E E   Q.      a E   E       E
|--------------------------------------------|
|--------------------------------------------|
|--------------------------------------------|
|-(5)---3h5-3--------------------------------|
|-------------5---3-------1h3---1b1.5--------|
|---------------------------------------3----|


    Q   a E +E    S S     E S E. E    E     S  S  S     S
|------------------------------------------15-------------|
|-----------------3---------------------------18----------|
|-------3h4-(4)-----5b5.5-3----------------------17b19-17-|
|---5-----------------------5--------17b19----------------|
|-----------------------------5/--------------------------|
|---------------------------------------------------------|
|
| a Q.       S  S S S     E Q    S S  E     E     e
|---------------------------------------------------------|
|---------------------------------------------------------|
|---------------------------------------------------------|
|-3s5---------------------5-----------3-----4-----5-------|
|-----------------5-7-------5----5-5----------------------|
|------------5--7-----------------------------------------|


  G7+9
              ~~~~~~
                                       |--3--|                                         |--3--|
   E          T  S.  +E   E         E  S  S  S  S     +S   S  S  S  S  T   T  T  T  E  S  S  S
|------------------------------------------------------------------------------------------------|
|------------------------------------------------------------------------------------------------|
|-15b15.5----------------15b15.5------------15-17b19-(17)----15-17-17-17p=15----------15-17-15---|
|------------17-17--(17)--------------15-17---------------17-----------------17-17-17------------|
|------------------------------------------------------------------------------------------------|
|------------------------------------------------------------------------------------------------|
|
|  S       S  Q           S       S Q           S      S   Q           Q               E
|------------------------------------------------------------------------------------------------|
|-11------11-------------11------11------------11-----11--------------11/------------------------|
|-10------10-------------10------10------------10-----10--------------10/------------------------|
|--9-------9--------------9-------9-------------9------9---------------9/------------------------|
|-10------10-------------10------10------------10-----10--------------10/------------------------|
|------------------------------------------------------------------------------------------------|


                           |--3--|  |-3--|  |------3-------|                          |-----3-----|
   E     E     e     E     S  S  S  S  S S  S      +S      S  E  e       s   s  s  s  S      +S   S
|------------------------------------------------------------------------------15-17-17pb19r(17)----|
|-------18b20-18b20-----------------------------------------------------15--17-------------------17-|
|-------------------------15-17----15-17---17pb19r(17)p===15----15b15.5-----------------------------|
|-17----------------------------17---------------------------17-------------------------------------|
|---------------------------------------------------------------------------------------------------|
|---------------------------------------------------------------------------------------------------|
|
|  S  S  Q           S  S  Q                S           S     Q          Q            E
|---------------------------------------------------------------------------------------------------|
|-11-11-------------11-11------------------11----------11---------------11/-------------------------|
|-10-10-------------10-10------------------10----------10---------------10/-------------------------|
|--9--9--------------9--9-------------------9-----------9----------------9/-------------------------|
|-10-10-------------10-10------------------10----------10---------------10/-------------------------|
|---------------------------------------------------------------------------------------------------|


  C9
                             ~~
                                                         |--3--|
   S  E       S  T  T  T  T  Q      E     S  S  S     S  T  T  T  S  a  E   E       E
|-15-18b20---18-15h18p15----15-----------15-------------------------------------------|
|------------------------18--------18b20----18----------------------------------------|
|----------------------------------------------17b19-17-15h17p15----15h17--15b15.5----|
|----------------------------------------------------------------17----------------17-|
|-------------------------------------------------------------------------------------|
|-------------------------------------------------------------------------------------|
|
|  S  S    E     E           S S E  E     S  S  E        E              Q           E
|--3--3----------------------3-3----------3--3----------------------------------------|
|--3--3----------------------3-3----------3--3--------------------------3/------------|
|--3--3----------------------3-3----------3--3--------------------------3/------------|
|--2--2----------------------2-2----------2--2--------------------------2/------------|
|--3--3----------------------3-3----------3--3--------------------------3/------------|
|-------------------------------------------------------------------------------------|


                                                                          N.C.
   S     S  S  S     S  S  S     S  S  S     S  S  S     S  S  S     S  S  S      +S        E  S  S
|---------------------------------------------------------------------------------------------------|
|-------15-18-------15-18-------15-18-------15-18-------15-18-------15-18---------------------------|
|-17b19-------17b19-------17b19-------17b19-------17b19-------17b19-------17pb19r(17)b17.5-15-------|
|---------------------------------------------------------------------------------------------17p15-|
|---------------------------------------------------------------------------------------------------|
|---------------------------------------------------------------------------------------------------|
|
|  S     S  E        E     S     S  E        E     S     S  E        E     e                e  e
|--3-----3-----------------3-----3-----------------3-----3------------------------------------------|
|--3-----3-----------------3-----3-----------------3-----3------------------------------------------|
|--3-----3-----------------3-----3-----------------3-----3------------------------------------------|
|--2-----2-----------------2-----2-----------------2-----2----------------------------------3--5----|
|--3-----3-----------------3-----3-----------------3-----3-----------------5------------------------|
|---------------------------------------------------------------------------------------------------|


  G7                 F#G7                      N.C.
                   ~~                           ~~
   Q    a  E  +E   Q    S  S  S  a  S  S  S  a  Q   E
|-----------------------------------------------------|
|-----------------15---17p15--------------------------|
|------15h16-(16)------------17-15h16-----------------|
|-17----------------------------------17----15h17-----|
|----------------------------------------17-----------|
|-----------------------------------------------------|
|
|  Q.          Q     E  Q.                      E E E
|-----------------------------------------------------|
|-----------------------------------------------------|
|--4-----------4-----3--4-----------------------------|
|--3-----------3-----2--3-----------------------------|
|--5-----------5-----4--5-----------------------3-4-5-|
|--3-----------3-----2--3-----------------------------|


  D7+9                        N.C.
  Q.    S    S  S  S  S S  Q     S  S    S  S  E       s S
|------17b19-----------------------------------------------|
|--------------15----15---15----17-15----------------------|
|-----------------17------------17-15-----------------15---|
|---------------------------------------17-15-17b17.5------|
|----------------------------------------------------------|
|----------------------------------------------------------|
|
| Q.    E       E     E    Q  a  E    a  E     E       E
|----------------------------------------------------------|
|-6------------------------6-------------------------------|
|-5------------------------5-------------------------------|
|-4-------------4----------4--3h=5----3h=5-----3-----------|
|-5-----5-------------5----5---------------------------5---|
|----------------------------------------------------------|


                                                     |--3--|
   E     S  S  E         S   S  E     S  S  S     S  T  T  T  S  a  E  S  S  a  E  a  E
|---------------------------------------------------------------------------------------|
|-------15-18-----------15--18-------15-18----------------------------------------------|
|-17b19-------17b19------------17b19-------17b19-17-15h17p15----15h16-------------15h16-|
|------------------------------------------------------------17-------17----15h17-------|
|------------------------------------------------------------------------17-------------|
|---------------------------------------------------------------------------------------|
|
|              |--3---|
|  Q           S    S S  Q.                 E        E              E  E        E     E
|---------------------------------------------------------------------------------------|
|---------------------------------------------------------------------------------------|
|--3---------------------3--------------------------------------------------------------|
|--------------5S===3S5---------------------5\-------------------------5--------------5-|
|------------------------------------------------------------------/5-------------------|
|---------------------------------------------------------------------------------------|


    ~~~~
   +Q    S  S    E    E  S      +S   Q    S     S    T  T  T  T  s     S  E
|---------------17b19---17pb19r(17)------18b20-18---15h18p15----15-------15-|
|-------15-17-----------------------17-----------------------17-------------|
|-(16)----------------------------------------------------------------------|
|---------------------------------------------------------------------------|
|---------------------------------------------------------------------------|
|---------------------------------------------------------------------------|
|
|  +Q.        a  E    E  E           Q.           a  E           E        E
|---------------------------------------------------------------------------|
|---------------------------------------------------------------------------|
|---------------------------------------------------------------------------|
|--(5)--------3h=5----3-----------------------------------------------------|
|------------------------5-----------3------------1h=3-----------1b1.5------|
|-------------------------------------------------------------------------3-|


   ~~~~~
   Q.      S  S  S      +S   S  S  a  S  S  Q      S  S  S  S  E
|---------15-----------------------------------------------------||
|-18b20------18-----------------------------------------15----15-||
|---------------17pb19r(17)p15----15h16-----------------15----15-||
|------------------------------17-------17--------15-17----17----||
|------------------------------------------17--------------------||
|----------------------------------------------------------------||
|
|  Q.      S  S  S       S   E        Q       S S  S  S  E     e
|----------------------------------------------------------------||
|----------------------------------------------------------------||
|----------------------------------------------------------------||
|--5-------------------------5---------------------3h=5--3-----5-||
|----------------5-------7------------5-------5-5----------------||
|----------5--7--------------------------------------------------||


 3rd Verse
  G7+9
   E        E  E  E        E  E  E        E  E  S      +S   E  S  S
|-------------15-------------15-------------15-----------------------|
|----------15-------------15-------------15--------------------------|
|-17b19----------17b19----------17b19----------17pb19r(17)p15--------|
|-------------------------------------------------------------17-15--|
|--------------------------------------------------------------------|
|--------------------------------------------------------------------|
|
|  S     S  Q     S     S  Q     S     S  Q     Q              E
|--------------------------------------------------------------------|
|-11----11-------11----11-------11----11-------11/-------------------|
|-10----10-------10----10-------10----10-------10/-------------------|
|--9-----9--------9-----9--------9-----9--------9/-------------------|
|-10----10-------10----10-------10----10-------10/-------------------|
|--------------------------------------------------------------------|


                                 ~~~~~
   E        E  E  E        E  E  Q          S  S  S    S  E  E
|-------------15-------------15------------15------------------|
|----------15-------------15----18b20---------18---------------|
|-17b19----------17b19---------------------------17b19---17----|
|-----------------------------------------------------------17-|
|--------------------------------------------------------------|
|--------------------------------------------------------------|
|
|  S     S  Q     S     S  Q     S     S Q        Q          E
|--------------------------------------------------------------|
|-11----11-------11----11-------11----11---------11/-----------|
|-10----10-------10----10-------10----10---------10/-----------|
|--9-----9--------9-----9--------9-----9----------9/-----------|
|-10----10-------10----10-------10----10---------10/-----------|
|--------------------------------------------------------------|


  C9
   E       S  S  E     E    E  E  E       E  E  S      +S   E  E
|----------------------------------------15----------------------|
|---------15-18-------15---18-15------------18-------------------|
|-17b19---------17b19------------17b19---------17pb19r(17)p15----|
|-------------------------------------------------------------17-|
|----------------------------------------------------------------|
|----------------------------------------------------------------|
|
|  S    S  Q           S S  Q     S    S  Q     E           Q
|--3-------------------3----------3------------------------------|
|--3----3--------------3-3--------3----3--------3/---------------|
|--3----3--------------3-3--------3----3--------3/---------------|
|--2----2--------------2-2--------2----2--------2/---------------|
|--3----3--------------3-3--------3----3--------3/---------------|
|----------------------------------------------------------------|


                                             N.C.
                                          ~~
   E       E  E  E       E  S  S  E       Q   S  S     +E   S  S
|-18b19---15----18b19---15-------18b20---18--15------------15----|
|------------15------------15-15----------------18b20-(18)----18-|
|----------------------------------------------------------------|
|----------------------------------------------------------------|
|----------------------------------------------------------------|
|----------------------------------------------------------------|
|
|  S    S  Q     S    S  Q        S    S  Q   E         E   E
|--3----3--------3----3-----------3----3-------------------------|
|--3----3--------3----3-----------3----3-------------------------|
|--3----3--------3----3-----------3----3-------------------------|
|--2----2--------2----2-----------2----2----------------3---5----|
|--3----3--------3----3-----------3----3------5------------------|
|----------------------------------------------------------------|


  G7                       F#G7   N.C.
   S      S  +Q    +Q.       H.
|---------------------------------------|
|---------------------------------------|
|-15b16==15-(15)--(15)r-----------------|
|---------------------------------------|
|---------------------------------------|
|---------------------------------------|
|
|  Q.              +Q    S S Q.   E E E
|---------------------------------------|
|---------------------------------------|
|--4---------------(4)---4s3-4----------|
|--3---------------(3)---3s2-3----------|
|--5---------------(5)---5s4-5----3-4-5-|
|--3---------------(3)---3s2-3----------|


  D7+9                       N.C.
           |---3----|
  Q.   Q   E        S   Q.    S  S       E  S  S
|------------------10-(10)---12-10b10.5----------|
|---------11b11.5======11r--------------11-------|
|------------------------------------------12p10-|
|------------------------------------------------|
|------------------------------------------------|
|------------------------------------------------|
|
| Q.   Q   E            Q.    e          E  E
|------------------------------------------------|
|-6----6---5------------6------------------------|
|-5----5---4------------5------------------------|
|-4----4---3------------4-----5----------3-------|
|-5----5----------------5-------------------5----|
|------------------------------------------------|


   ~~~
   Q.        Q.   H.
|-------------------------------|
|-------------------------------|
|-12----------------------------|
|-------------------------------|
|-------------------------------|
|-------------------------------|
|
|      |-3-|
|  Q   S S S Q.   E  E  E E E E
|-------------------------------|
|-------------------------------|
|--3---------3------------------|
|------5S3S5------5\------5---5-|
|----------------------/5-------|
|-------------------------------|


  H.=H
                                                 G#7+9
                                         6/8
        ~~~~~~~~            ~~
                                 |-3--|
   Q    E   +Q    E Q.      Q    E    S   Q    E  Q.
|---------------------------------------|--------------||
|-----------------3-------------10b12---|-8\-----------||
|------/4---(4)-----5------/9---------9-|--------------||
|---------------------------------------|--------------||
|---------------------------------------|--------------||
|---------------------------------------|--------------||
|
|                   ~~                            TP
| +Q.     a  E  E E Q.   a  E E  E        E  E E  Q.
|---------------------------------------|--------------||
|---------------------------------------|--------12----||
|---------------------------------------|--------11----||
|-(5)-----3h=5--3-----------------------|-5\-----10----||
|-----------------5s3----1h=3-1---------|--------11----||
|--------------------------------3------|--------------||


 Outro
  G7+9
 4/4
   Q  S S S S S S     S a S S S S S   +Q   Q  H
|-----------------------------------|--------------*|
|-----6---3-------------------------|--------------*|
|-------4---3-5-3b3.5---3h4---------|--------------*|
|---------------------5-----5-------|--------------*|
|-----------------------------5-3S2-|-(2)----------*|
|-----------------------------------|--------------*|
|
|  TP
|  W                                   Q   Q  H
|-----------------------------------|--------------*|
|-11--------------------------------|-11\----------*|
|-10--------------------------------|-10\----------*|
|--9--------------------------------|--9\----------*|
|-10--------------------------------|-10\----------*|
|-----------------------------------|--------------*|
            
Submit corrections


        Sitting On Top Of The World lessons Hard to play? Try these video lessons and learn fast Sitting On Top Of The World lessons
        
↑ Back to top | Tablatures and chords for acoustic guitar and electric guitar, ukulele, drums are parodies/interpretations of the original songs. You may use it for private study, scholarship, research or language learning purposes only