» » »

Cream - Crossroads Tabs

Artists:  A B C D E F G H I J K L M N O P Q R S T U V W X Y Z # 

Crossroads Tabs

(ver. 2) Click to play this song!
Cream
 Rating:
4/5 (9 votes)

 Crossroads lessons Tabs too difficult? Try these video lessons and learn fast
 
                    ------------------------------------------------------------

    CREAM - CROSSROADS (Johnson) From WHEELS OF FIRE/LIVE AT THE
            FILLMORE album. Released on June 1968.
   
    ------------------------------------------------------------







    I went down to the crossroads, fell down on my knee
    I went down to the crossroads, fell down on my knee
    Asked the Lord above for mercy, "Save me if you please"

    I went down to the crossroads, tried to flag a ride
    Down to the crossroads, tried to flag a ride
    Nobody seemed to know me, everybody passed by

    I'm going down to Rosedale, take my rider by my side
    Going down to Rosedale, take my rider by my side
    You can still buy a house, baby, on the riverside

    SOLO 

    Going down to Rosedale, take my rider by my side
    Going down to Rosedale, take my rider by my side
    You can still buy a house, baby, on the riverside

    SOLO

    You can run, you can run, tell my friend-boy Willie Brown
    You can run, you can run, tell my friend-boy Willie Brown
    And I'm standing at the crossroads, believe I'm sinking down




                           
  e|------- ------- ------- -------|------- ------- ------- -------|
  B|-------------------------------|-------------------------------|
  G|----2---0---2-------0-2-0------|----2---0---2-------0-2-0------|
  D|-------------------------------|-------------------------------|
  A|0---------------------------3B-|0---------------------------3B-|
  E|-------------------------------|-------------------------------|




  e|------- ------- ------- -------|------- ------- ------- -------|
  B|----2---0---2------------------|----2---0----------------------|
  G|----2---0---2-------0-2-0------|----2---0---2-------0-2-0------|
  D|-------------------------------|-------------------------------|
  A|0---------------------------3B-|0---------------------------3B-|
  E|-------------------------------|-------------------------------|



  e|------- ------- 2------ -------|------2 ------- 2------ -------|
  B|------1---1-------------1------|----------1-------------1------|
  G|------------2------------------|------------2------------------|
  D|0---0-----------------------3B-|0---0--------------------------|
  A|-------------------------------|----------------------------3B-|
  E|-------------------------------|-------------------------------|



  e|------- ------- ------- -------|------- ------- ------- -------|
  B|----2---0----------------------|----2--------------------------|
  G|----2---0---2-------0-2-0------|----2-------2-------0-2-0------|
  D|-------------------------------|-------------------------------|
  A|0---------------------------3B-|0---------------------------3B-|
  E|-------------------------------|-------------------------------|



  e|------- ------- ------- -------|------- ------- ------- -------|
  B|-------------------------------|-------------------------------|
  G|-------------------------------|--------5B-------7P5----5B----5|
  D|--------2---2-----------2------|--5-7-------7-------7----------|
  A|2---2-------------------------/|7------------------------------|
  E|0---0---------------0----------|-------------------------------|



  e|------- -----(5)------- -------|------- ------- ------- -------|
  B|------------5---8P5---5--------|----5---5----------------------|
  G|--------5H6---------7---5B-----|----5H6------------------------|
  D|7------------------------------|7------------------------------|
  A|-------------------------------|-------------7-----------------|
  E|-------------------------------|-------------------------------|
                                                        I   went
                                                                down

    00:22

  e|------- ------- ------- -------|------- ------- ------- -------|
  B|-------------------------------|-------------------------------|
  G|-------------------------------|2-------4-------2---2---4---2--|
  D|2---2---4---2---2---2---4------|0-------0-------0---0---0---2--|
  A|0---0---0---0---0---0---0------|-------------------------------|
  E|-------------------------------|-------------------------------|
        to  the crossroads              fell    down    my      knee
                                                    on


  e|------- ------- ------- -------|------- ------- ------- -------|
  B|-------------------------------|-------------------------------|
  G|------------2-------0-2-0------|----2-------2-------0-2-0------|
  D|-------------------------------|-------------------------------|
  A|0---------------------------3B-|0---------------------------3B-|
  E|-------------------------------|-------------------------------|
                                                                down



  e|------- ------- ------- -------|------- ------- ------- -------|
  B|-------------------------------|-------------------------------|
  G|2---2---4-------2---2---4---2--|2---2---4-------2---2---4---2--|
  D|0---0---0-------0---0---0---0--|0---0---0-------0---0---0---2--|
  A|-------------------------------|-------------------------------|
  E|-------------------------------|-------------------------------|
        to  the crossroads              fell    down    my      knee
                                                    on


  e|------- ------- ------- -------|------- ------- ------- -------|
  B|-------------------------------|-------------------------------|
  G|----2---0---2-------0-2-0------|----2---0---2-------0-2-0------|
  D|-------------------------------|-------------------------------|
  A|0---------------------------3B-|0---------------------------2--|
  E|-------------------------------|----------------------------0--|




  e|------- ------- ------- -------|------- ------- ------- -------|
  B|-------------------------------|-------------------------------|
  G|-------------------------------|2-------2---2---2---2---2----2-|
  D|-------------------------------|0-------0---0---0---0---0----0-|
  A|2-------4---2---2---2---4---2--|-----------------------------3-|
  E|0-------0---0---0---0---0---0--|-------------------------------|




  e|------- ------- ------- -------|------- ------- ------- -------|
  B|-------------------------------|-------------------------------|
  G|----2---0---2-------0-2-0------|----2---0---2-------0-2-0------|
  D|-------------------------------|-------------------------------|
  A|0---------------------------3B-|0---------------------------2--|
  E|-------------------------------|----------------------------0--|
                                                                I  
                                                               

    00:44
    went down to the crossroads, tried to flag a ride

  e|------- ------- ------- -------|------- ------- ------- -------|
  B|--------------------0----------|-------------------------------|
  G|----2---0---2---------2-0------|----2---0---2-------0-2-0------|
  D|-------------------------------|-------------------------------|
  A|0---------------------------3B-|0---------------------------2--|
  E|-------------------------------|----------------------------0--|


    Down to the crossroads, tried to flag a ride
    Nobody seemed to know me, everybody passed by
                                               Well

    01:06
    I'm going down to Rosedale, take my rider by my side
    Going down to Rosedale, take my rider by my side
    You can still buy a house, baby, on the riverside



  e|------- ------- ------- -------|------- ------- ------- -------|
  B|------------2------------------|-------------------------------|
  G|----2---0---2-------0-2-0------|--------------------2-------2--|
  D|-------------------------------|----------------2H4-----4------|
  A|0---------------------------3B-|0------------------------------|
  E|-------------------------------|-------------------------------|


    SOLO
    01:28
    
  e|------- ------- ------- -------|------- ------- ------- -------|
  B|-------------------------------|----------------------------5H7|
  G|2-~---------2---2-------4B6----|--------2---2-4B6--------------|
  D|--------4-----------4----------|----2H4---4--------------------|
  A|-------------------------------|-------------------------------|
  E|-------------------------------|-------------------------------|



  e|5------ 5---5-- 5------ -------|------- ------- ------- -------|
  B|5----7--5---5H7-5---5---5------|-------------------------------|
  G|--------------------7---6------|----------------5-~-----7P5----|
  D|----------------------------7--|--------5---7---------------7--|
  A|-------------------------------|5---7--------------------------|
  E|-------------------------------|-------------------------------|



  e|------- 5------ ------- -------|------- ------- ------- -------|
  B|------------8---5--------------|-HP-----------------5---8------|
  G|7B9-----------------5H7-~------|575-----5-H-7-B-9-----------9\7|
  D|-------------------------------|---7---------------------------|
  A|-------------------------------|-------------------------------|
  E|-------------------------------|-------------------------------|


    01:38

  e|------- ------- ------- ----5--|------- ------- 8---10- -------|
  B|------------------------5------|9-/-10------------------10-----|
  G|5B6-----------------5/6--------|-------------------------------|
  D|--------7P5-7------------------|-------------------------------|
  A|-------------------------------|-------------------------------|
  E|-------------------------------|-------------------------------|




  e|------8 ------8 ------- -------|------- ------- ------- -------|
  B|8H10----8H10-------------------|----5--------------------------|
  G|----------------9\7-5---7P5----/6-------7---6------------------|
  D|----------------------------7--|----------------7--------------|
  A|-------------------------------|--------------------7\5-3------|
  E|-------------------------------|----------------------------5--|


    

  e|------- ------5 ------- -------|------- ------- ------- -------|
  B|------------5---8P5---5--------|--------5-------------------13B|
  G|--------5H6---------7---5H7P5--|--------5----------------------|
  D|7------------------------------|7P5-7--------------------------|
  A|-------------------------------|------------7-/----------------|
  E|-------------------------------|-------------------------------|


    01:49

  e|------- ------- ------- -------|------- ----12- ------- -------|
  B|-------------------------------|13B-----15------13B------------|
  G|----14-~-----------------------|------------------------14-----|
  D|-------------------------------|-------------------------------|
  A|-------------------------------|-------------------------------|
  E|-------------------------------|-------------------------------|




  e|------- ------- ------- -------|------- ------- ------- -------|
  B|--------13--------------8-8-8-8|------------------------8-8-8-8|
  G|14------------------7/9--------|7---5---------------7/9--------|
  D|-------------------------------|--------7P5-7------------------|
  A|-------------------------------|-------------------------------|
  E|-------------------------------|-------------------------------|




  e|------- 8------ ----12- ----12-|----12- ----12- ------- -------|
  B|8H10----------------15B17---15B17---15B17---15B17---13--15-----|
  G|-------------------------------|----------------------------14-|
  D|-------------------------------|-------------------------------|
  A|-------------------------------|-------------------------------|
  E|-------------------------------|-------------------------------|




  e|------- ------- ----12- -------|------- ------- ------- --7----|
  B|--------13----------15B17---R--|13----------------------8-----8|
  G|-------------------------------|--------141314------7/9--------|
  D|-------------------------------|----------P--------------------|
  A|-------------------------------|-------------------------------|
  E|-------------------------------|-------------------------------|




  e|------- ------- ------- -------|------- ------- ------- --P----|
  B|-------------------------------|----10----10----1010-10-1210---|
  G|9\7-5---7P5-----5---7-/-9------|9/11--------11--------------11-|
  D|------------7------------------|-------------------------------|
  A|-------------------------------|-------------------------------|
  E|-------------------------------|-------------------------------|




  e|------- ------- ------- -----B-|------- ------- ------- -------|
  B|10--------------10-1012B14-1214|-------------------------------|
  G|--------11--911---11-----------|11-----------------------------|
  D|-------------H-----------------|--------\---------5-7P5--------|
  A|-------------------------------|------------5H7---------7---5--|
  E|-------------------------------|-------------------------------|


    02:11

  e|------- ------- ------- -------|------- ------- ------- -------|
  B|-------------------------------|-------------------------------|
  G|-------------------------------|-------------------------------|
  D|-------------------------------|-------------------------------|
  A|-------------------------------|-------------------------------|
  E|5------------------------------|-------------------------------|


    Going down to Rosedale, take my rider by my side
    Going down to Rosedale, take my rider by my side
    You can still buy a house, baby, on the riverside



e|-------- -------- -------- --------|-------- -------- -------- --------|
B|-----------------------------------|----------------------1717-1717----|
G|-----------------------------------|------------------1921---------1921|
D|-----------------------------------|--------------------B------------B-|
A|-----------------------------------|-----------------------------------|
E|-----------------------------------|-----------------------------------|


    SOLO
    02:32
e|17171717 -----17171717---- 17171717|-------- -------- 17------ --------|
B|-----------------------------------|2022-~----------------20-----------|
G|---------1921---------1921---------|--B------------------------2119-17-|
D|-----------B------------B----------|-----------------------------B-----|
A|-----------------------------------|-----------------------------------|
E|-----------------------------------|-----------------------------------|



                                                     B             H P
e|-------- -------- ----17-- --B-----|-------- ----2022 ----20-- 172017--|
B|------------------17-------2017----|---------------------------------20|
G|19-------17--18----------------19--|17B--------------------------------|
D|----19-----------------------------|---------19------------------------|
A|-----------------------------------|-----------------------------------|
E|-----------------------------------|-----------------------------------|




e|17------ ------B- -------- 17------|-------- -------- -------- --------|
B|-------------2022--------------20--|--R--------------------------------|
G|---------14------------------------|2119-17--19-------17--19---1921-19-|
D|-----------------------------------|-------------19--------------B-----|
A|-----------------------------------|-----------------------------------|
E|-----------------------------------|-----------------------------------|


  02:43

e|-------- -------- -------- --------|-------- -------- -------- --------|
B|--------------------13-------13--13|------13-1313-------131313-------13|
G|17-------141214-------14---12------|1214---------1214--------------12--|
D|-------------H---------------------|--B------------B-----------1214----|
A|-----------------------------------|-----------------------------B-----|
E|-----------------------------------|-----------------------------------|



                                                          P
e|-------- -------- -------- 12----12|12-12--- 1212---- 1512--12 --------|
B|13--13--15---13------------15B17---|---15B17--------------15---131513--|
G|14--14--14---14--------------------|-----------------------------H-----|
D|-----------------------------------|-----------------------------------|
A|------------------0---0------------|-----------------------------------|
E|-----------------------------------|-----------------------------------|



        B
e|----1517 -------- -------- --------|-------- -------- -------- ----17--|
B|------------------13---15--13-~----|--P------13--13-------17---19------|
G|14---------------------------------|1412-----12--12--------------------|
D|-----------------------------------|----14------------14---------------|
A|-----------------------------------|-----------------------------------|
E|-----------------------------------|-----------------------------------|


  02:53
                                                          H P
e|-------- -------- 17------ 17------|-------- 17------ 172017-- 2022----|
B|2022-~----------------20-------2022|-~-----------20---------20---B-----|
G|--B------------------------------B-|-----------------------------------|
D|-----------------------------------|-----------------------------------|
A|-----------------------------------|-----------------------------------|
E|-----------------------------------|-----------------------------------|




e|20B----- 17------ 17------ --------|17--15-- ----15-- -------- --------|
B|-------------20-------2022---------|---------17-------15--13---15------|
G|------------------------B----------|-------------------------------14--|
D|-----------------------------------|-----------------------------------|
A|-----------------------------------|-----------------------------------|
E|-----------------------------------|-----------------------------------|




e|-------- -------- -------- --------|--H-P--- 12--14-- -------- --------|
B|1719-----15--17---1315-~-----------|131513---13--15---131010---13--15--|
G|--B-----------------H--------------|------14------------P--------------|
D|-----------------------------------|-----------------------------------|
A|-----------------------------------|-----------------------------------|
E|-----------------------------------|-----------------------------------|


  03:04
                                                                       P
e|-------- ------12 ------12 ------12|-------- -------- -------- ----1512|
B|---------14-------15-------14------|--P---------------13-~-13----------|
G|14---------------------------------|1412-----12--14------------14------|
D|-----------------------------------|----14-----------------------------|
A|-----------------------------------|-----------------------------------|
E|-----------------------------------|-----------------------------------|



        P        P        P        P
e|----1512 ----1512 ----1512 ----1517|-~------ 1715---- --P---P- --------|
B|15-------15-------15-------15------|------------17151715131513---------|
G|-----------------------------------|----------------B-R--------14--14--|
D|-----------------------------------|-----------------------------------|
A|-----------------------------------|-----------------------------------|
E|-----------------------------------|-----------------------------------|




e|-------- -------- -------- --------|-------- -------- -------- --------|
B|13B--------P------13--15---13--13--|13--13---13--13---13-----13-----13-|
G|---------1412-----12--14---12--14--|12--14---12--14---12---1412---1412-|
D|--------------14-------------------|-----------------------------------|
A|-----------------------------------|-----------------------------------|
E|-----------------------------------|-----------------------------------|


  03:15

e|----15-- 15--15-- 15--15-- 15--15--|15--1515 --1515-- 1515--15 15--15--|
B|----15-B-17--15-B-17--15-B-17--15-B|17--1517---1517-R-1517--15B17--15--|
G|14---------------------------------|------B------B------B--------------|
D|-----------------------------------|-----------------------------------|
A|-----------------------------------|-----------------------------------|
E|-----------------------------------|-----------------------------------|




e|-------- -------- -------- --------|-------- --P----- --P----- --B-----|
B|13---------P------13131313-13--13131313--13--2017-----2017-----2022-~--|
G|---------1412-----12141414-14--12141414--14------19-------19-----------|
D|-------------14-----B------------B-|-----------------------------------|
A|-----------------------------------|-----------------------------------|
E|-----------------------------------|-----------------------------------|




e|-------- 17------ --17---- ------17|-------- --17---- -------- --------|
B|-----------20172022---20172022-----|20172022-----2017---B-R-P----------|
G|-------------P---B------P---B------|--P---B--------P--19211917-19--18--|
D|-----------------------------------|-------------------------19--------|
A|-----------------------------------|-----------------------------------|
E|-----------------------------------|-----------------------------------|


  03:25
                                            B        B
e|-------- ------17 --P----- --------|----1921 ----1921 ----17-- 19------|
B|-------------17---2017--17---------|-------------------------------19--|
G|---------1718---------19---171917--|-----------------------------------|
D|191719-----H-----------------H-----|19---------------------------------|
A|--P--------------------------------|-----------------------------------|
E|-----------------------------------|-----------------------------------|



                               B                 B          H P
e|17-~---- --1717-~ -------- 1921----|-------- 2022---- 20172017 ----17-~|
B|---------19-----------19-----------|----17---------------------20------|
G|-----------------------------------|-----------------------------------|
D|-----------------------------------|-----------------------------------|
A|-----------------------------------|-----------------------------------|
E|-----------------------------------|-----------------------------------|




e|-------- -------- 17------ --------|-------- -------- -------- --------|
B|---------2022-------2017-----------|---------17------------------------|
G|-----------B-----------192119171917|----18-----------------------------|
D|-------------------------B-R-P-H-P-|19---------------------------------|
A|-----------------------------------|-------------19-~------------------|
E|-----------------------------------|-----------------------------------|
                                                                     You


    03:36
    can run, you can run, tell my friend-boy Willie Brown
    Run, you can run, tell my friend-boy Willie Brown
    And I'm standing at the crossroads, believe I'm sinking ...


                                                       (.

e|-------- -------- -------- --------|-------- -------- -------- --------|
B|-----------------------------------|------------------5----------------|
G|-----------------------------------|------------------6----------------|
D|-----7P5-7P5----------7------------|------------------5----------------|
A|-------------7----5H7------5H7P5\3-|------------------0----------------|
E|-----------------------------------|5----------------------------------|
  down



e|-------- -------- -------- -----(5)|-------- -------- -------- --------|
B|-------------------------------5---|8P5---5----------------------------|
G|---------------------------5H6-----|----7----5H7P5---------------------|
D|-----------------------------------|---------------7\-2----------------|
A|-----------------------------------|------------------0----------------|
E|-----------------------------------|------------------0----------------|







        B  Bend
        R  Release
        /  Slide up
        \  Slide down
        H  Hammer-on
        P  Pull-off
        ~  Vibrato
        +  Harmonic
        x  Mute note
        .  Play note like a dot in standard notation
        ^  Ties two notes together
        (. Pause
            
Submit corrections


        Crossroads lessons Hard to play? Try these video lessons and learn fast Crossroads lessons
        
↑ Back to top | Tablatures and chords for acoustic guitar and electric guitar, ukulele, drums are parodies/interpretations of the original songs. You may use it for private study, scholarship, research or language learning purposes only