Home » C » Cream »

Cream - Cocain Tabs

Artists:  A B C D E F G H I J K L M N O P Q R S T U V W X Y Z # 

Cocain Tabs

(ver. 1) Click to play this song!
Cream
You only do this one some times just listen to it…

e |------------------------------       
b |------------------------------
g |------------------------------
d |---9--9--7--9----9-\-7-----7--
a |---7--7--5--7----7-\-5--7--5--
e |------------------------5-----

You do this the rest of the time…

e |-----------------------
b |-----------------------
g |-----------------------
d |---9--9--7--9----9-\-7-
a |---7--7--5--7----7-\-5-
e |-----------------------

and then the other part is…

e |----------------
b |----------------
g |----------------
d |---9--7--5--4---
a |---7--5--3--2---
e |----------------

these are just the basic parts… no lead parts… if you just listen to the song and follow this you’ll be happy… Eric Clapton is one of the greatest…
            
Submit corrections

↑ Back to top | Tablatures and chords for acoustic guitar and electric guitar, ukulele, drums are parodies/interpretations of the original songs. You may use it for private study, scholarship, research or language learning purposes only