Home » C » Cream »

Cream - Born Under A Bad Sign Tabs

Artists:  A B C D E F G H I J K L M N O P Q R S T U V W X Y Z # 

Born Under A Bad Sign Tabs

(ver. 4) Click to play this song!
Cream
 Rating:
4.4/5 (17 votes)
                 [Intro]
e|-----------|--------------------|--------------|--------3-----6(7)-|--------3-----------------|------------|
B|-13(15)----|-13(15)-------------|---8p6--------|------3---6/8------|------3---3-6---3---------|------------|
G|--------12-|--------11-13-11----|-7-----7-5-3+-|-5(7)--------------|-5(7)---------5---3-------|-----3---3--|
D|-----------|-----------------12-|--------------|-------------------|--------------------5-3-5-|-3h5---5---5|
A|-----------|--------------------|--------------|-------------------|--------------------------|------------|
E|-----------|--------------------|--------------|-------------------|--------------------------|------------|

e|-6-8-6--6---|--------3--------|------------------3----------|-12(13)--10----10----|-----------------|
B|----------8-|------3---6/8-6+-|-------------------------6h8-|------------13----11-|-------6---------|
G|------------|-5(7)------------|-3------------3h4----5/7-----|---------------------|-5/7-7---7-5-5h7-|
D|------------|-----------------|---5-3---3h5-----------------|---------------------|-----------------|
A|------------|-----------------|-------5---------------------|---------------------|-----------------|
E|------------|-----------------|-----------------------------|---------------------|-----------------|

 [Solo]
e|-----------15---------------|-----------15----------------------|-----------15--------|
B|--------15----18(20)-18(20)-|--------15----18p15----------------|--------15----18(20)-|
G|-17(19)---------------------|-17(19)-------------17-15-15h17----|-17(19)--------------|
D|----------------------------|--------------------------------17-|---------------------|
A|----------------------------|-----------------------------------|---------------------|
E|----------------------------|-----------------------------------|---------------------|

e|-18(20)-18-15----15--------|--------------------|-------15--------------|--------15--------------|
B|--------------18----18(20)-|-18-15--------------|----------18-15-18(20)-|-18(20)----18-15-18(20)-|
G|---------------------------|-------17-15+-------|-15h16-----------------|------------------------|
D|---------------------------|--------------17-17-|-----------------------|------------------------|
A|---------------------------|--------------------|-----------------------|------------------------|
E|---------------------------|--------------------|-----------------------|------------------------|

e|-18----20(22)-20(22)----18----------18+------|-----------15----------------------|
B|----20---------------20----20-18-20-----20\\-|--------15----18p15----15----------|
G|---------------------------------------------|-17(19)-------------17----17-15----|
D|---------------------------------------------|--------------------------------17-|
A|---------------------------------------------|-----------------------------------|
E|---------------------------------------------|-----------------------------------|

e|-------------------------------|------------------------------------------------|
B|-------------------------------|-15(18)-15(18)-(15)(18)-(15)(18)-(15)(18)-11----|
G|-------12-12-------12-12-12-12-|---------------------------------------------12-|
D|-12/14-------12/14-------------|------------------------------------------------|
A|-------------------------------|------------------------------------------------|
E|-------------------------------|------------------------------------------------|

e|---------------------|-----3--------------|
B|-3-6p3------3--------|-------6p3----------|
G|-------5(7)---5-3+---|-3h4-------5-3+-----|
D|-------------------5-|----------------5-5-|
A|---------------------|--------------------|
E|---------------------|--------------------|

 [Verse]
e|-----6---|------------------------|---------------------|-----------15---------------------15-|
B|-6/8---8-|-11-13-11-13(15)----11+-|-13(15)-13(15)----11-|--------15----15---------------------|
G|---------|-----------------12-----|---------------12----|-17(19)----------17+-15-----15h16----|
D|---------|------------------------|---------------------|------------------------17-----------|
A|---------|------------------------|---------------------|-------------------------------------|
E|---------|------------------------|---------------------|-------------------------------------| 

e|--------15--------|----18(20)-18-15----15--------|-----------15----------------|--------15-----------|
B|-18(20)----18(15)-|-15--------------18----18(20)-|--------15----15-------------|-----------15-18(20)-|
G|------------------|------------------------------|-17(19)----------17-15----15+}-17(19)--------------|
D|------------------|------------------------------|-----------------------17----|---------------------|
A|------------------|------------------------------|-----------------------------|---------------------|
E|------------------|------------------------------|-----------------------------|---------------------|

e|--------15--------------------------------------|
B|-18(20)----18-15-----------15-------------------|
G|-----------------17-17(19)----17-15----15-------|
D|------------------------------------17----17-17-|
A|------------------------------------------------|
E|------------------------------------------------|            
Submit corrections

↑ Back to top | Tablatures and chords for acoustic guitar and electric guitar, ukulele, drums are parodies/interpretations of the original songs. You may use it for private study, scholarship, research or language learning purposes only