Home » C » Crazy Town »

Crazy Town - Lollipop Porn Tabs

Artists:  A B C D E F G H I J K L M N O P Q R S T U V W X Y Z # 

Lollipop Porn Tabs

(ver. 2) Click to play this song!
Crazy Town
Tuning: Db Ab Db Gb Bb Eb


Verse - Guitars Tacet
Bassline
|--------------------|
|--------------------|
|--------------------|
|--------------------|
|-5-5----------------|
|------3--6--8-8---8-|

Chorus

|-------------------------------------------------|
|-------------------------------------------------|
|-------------------------------------------------|
|-8---------(8)1-------/3-------(3)/6-------------|
|-8---------(8)1-------/3-------(3)/6----|  (0:28-|
|-8---------(8)1-------/3-------(3)/6-------------|
 I got tha lollipop.....

Bridge
|-------------------------------------------------|
|-------------------------------------------------|
|-------------------------------------------------|
|-/11------------/13-------8----------------------|
|-/11------------/13-------8-------------|  (0:38-|
|-/11------------/13-------8----------------------|  x2
All caught up.....            
Submit corrections

↑ Back to top | Tablatures and chords for acoustic guitar and electric guitar, ukulele, drums are parodies/interpretations of the original songs. You may use it for private study, scholarship, research or language learning purposes only