Home » C » Crazy Town »

Crazy Town - Decorated Tabs

Artists:  A B C D E F G H I J K L M N O P Q R S T U V W X Y Z # 

Decorated Tabs

(ver. 3) Click to play this song!
Crazy Town
Drop-D    DADGBE
                                                                     by Fabio Stasi
                                         Crazy Town     Decorated
Intro / Prechorus
E-----------------------------------------||
B-----------------------------------------||
G-----------------------------------------||
D-----------------------------------------||
A----2---2---3---3---4---4---5---5--------||
D-2-2-2-2-2-2-2-2-2-2-2-2-2-2-2-2---------||

Verse
E----------------------------------------||
B----------------------------------------||
G----------------------------------------||
D-2-2-XXX2-2-XXX2-2-XXX2-2-XXX2-2--------||
A-2-2-XXX2-2-XXX2-2-XXX2-2-XXX2-2--------||
D-2-2-XXX2-2-XXX2-2-XXX2-2 XXX2-2--------||

Chorus
E-------------------------------------------------------------------||
B-------------------------------------------------------------------||
G-------------------------------------------------------------------||
D-2-2-2-2-2-2-2-2-2--0-0-0-0-0-0-0--11-11-11-11-11-11-12-12-12-12-12||
A-2-2-2-2-2-2-2-2-2--0-0-0-0-0-0-0--11-11-11-11-11-11-12-12-12-12-12||
D-2-2-2-2-2-2-2-2-2--0-0-0-0-0-0-0--11-11-11-11-11-11-12-12-12-12-12||

Outro
|------------------||
|------------------||
|------------------||
|-7--6--5--4--2----||
|-7--6--5--4--2----||
|-7--6--5--4--2----||
            
Submit corrections

↑ Back to top | Tablatures and chords for acoustic guitar and electric guitar, ukulele, drums are parodies/interpretations of the original songs. You may use it for private study, scholarship, research or language learning purposes only