Home » C » Crazy Town »

Crazy Town - Butterfly 2 Tabs

Artists:  A B C D E F G H I J K L M N O P Q R S T U V W X Y Z # 

Butterfly 2 Tabs

(ver. 1) Click to play this song!
Crazy Town
This is the guitar tabs for Butterfly by Crazy Town. It is not exactly hard to learn though!

Introduction

E|------------------------------------------------------------------|
B|-------13------15br-----------------------------------------------|
G|--14------14----------------14------12---14-----------------------|
D|--------------------------------------------12--------------------|
A|------------------------------------------------------------------|
E|------------------------------------------------------------------| 

Verse 1

E|------------------------------------------------------------------|
B|-------13------15br-----------------------------------------------|
G|--14------14----------------14------12---14-----------------------|
D|--------------------------------------------12--------------------|
A|------------------------------------------------------------------|
E|------------------------------------------------------------------| x2

(Pause for rapping)

Verse 2

E|------------------------------------------------------------------|
B|-------13------15br-----------------------------------------------|
G|--14------14----------------14------12---14-----------------------|
D|--------------------------------------------12--------------------|
A|------------------------------------------------------------------|
E|------------------------------------------------------------------| x4

E|------------------------------------------------------------------|
B|------------------------------------------------------------------|
G|--14--------------------------------------------------------------|
D|------------------------------------------------------------------|
A|------------------------------------------------------------------|
E|------------------------------------------------------------------|

(Pause for rapping)

Verse 3

E|------------------------------------------------------------------|
B|-------13------15br-----------------------------------------------|
G|--14------14----------------14------12---14-----------------------|
D|--------------------------------------------12--------------------|
A|------------------------------------------------------------------|
E|------------------------------------------------------------------| x2

E|------------------------------------------------------------------|
B|-------13------15br-----------------------------------------------|
G|--14------14----------------14------12----------------------------|
D|------------------------------------------------------------------|
A|------------------------------------------------------------------|
E|------------------------------------------------------------------| 

(Pause for rapping)

Verse 4

E|------------------------------------------------------------------|
B|-------13------15br-----------------------------------------------|
G|--14------14----------------14------12---14-----------------------|
D|--------------------------------------------12--------------------|
A|------------------------------------------------------------------|
E|------------------------------------------------------------------| x5

Ending

E|------------------------------------------------------------------|
B|-------13------15br-----------------------------------------------|
G|--14------14----------------14------12---14-----------------------|
D|--------------------------------------------12--------------------|
A|------------------------------------------------------------------|
E|------------------------------------------------------------------| x2

This tab was from Connor McAlister-Payne
            
Submit corrections

↑ Back to top | Tablatures and chords for acoustic guitar and electric guitar, ukulele, drums are parodies/interpretations of the original songs. You may use it for private study, scholarship, research or language learning purposes only