Home » C » Crazy Town »

Crazy Town - 2002 - Drowning Tabs

Artists:  A B C D E F G H I J K L M N O P Q R S T U V W X Y Z # 

2002 - Drowning Tabs

(ver. 1) Click to play this song!
Crazy Town
tuning: drop Db (low to high): C# G# C# F# Bb Eb

there is a solo (guitar 1) and a rythm guitar (guitar 2) in this song

Main riff [guitar 2]
                
|-----------------------------------------------------------------| 
|-----------------------------------------------------------------|
|-----------------------------------------------------------------| x2
|--5--5-5-5-5---0--0-0-0-0--10--10-10---5/-7-8-7-5-5-5-5-5--------|
|--5--5-5-5-5---0--0-0-0-0---8---8--8---5/-7-8-7-5-5-5-5-5--------| 
|--5--5-5-5-5---0--0-0-0-0---8---8--8---5/-7-8-7-5-5-5-5-5--------|
                *

intro riff [guitar 1]

|--12-------------------10---------------------|
|----------12-10-----------10---8h10-11-10-----|
|----------------------------------------------| x2
|----------------------------------------------|
|----------------------------------------------|
|----------------------------------------------|

start playing the riff when the rythm guitar starts to play where I put the * mark under the open string.


Verse 1 [guitar 1]

|---------------------5-----------------------------3--------|
|---6p56p56p56p5--6p5--6p56p56p5----6p56p56p56p5--------6----|
|-7-------------------------------7---------------5----------|  
|------------------------------------------------------------|
|------------------------------------------------------------|
|------------------------------------------------------------|

play this twice. but on the second turn do not play the last note. instead let the other last two notes ring.
then;
play the riffs on the intro part (play 3 times)
play Verse 1 (play it 3 times)
then comes th solo:

solo [guitar 1]

|----------------------------------------------------------------------------|
|----------------------------------------------------------------------------|
|----------------------------------------------------------------------------| 
|-0-0-0-0-19--0-0-0-0-17--21--19--17h19---0-0-0-0-19-0-0-0-0-17-15-14-10h12--|
|----------------------------------------------------------------------------|
|----------------------------------------------------------------------------|

|--------------------------------------------------------------------------------------------|
|--------------------------------------------------------------------------------------------|
|--------------------------------------------------------------------14----------------------| 
|-0-0-0-0--19--0-0-0-0-17---21--19--17h19----0-0-0-0-15--0-0-0-0-14-----12---0-0-15--0-0-14--| 
|--------------------------------------------------------------------------------------------|
|--------------------------------------------------------------------------------------------|
pm                                           .......     ........            ...     ...


after the solo, the rythm guitar plays the main riff 4 times. the solo guitar starts to play the intro riff after
the rythm guitar plays the main riff the first time.

outro : when the rythm guitar finishes the last riff that the solo guitar plays is ;

|--------------------------------|
|---6p56p56p56p5-----------------|
|-7------------------------------| 
|--------------------------------|
|--------------------------------|
|--------------------------------|

if you'd like to you can play this like a trill (without picking)

if you could rate this tab it will help me to correct it. 
any request or problems just send me an e-mail.
            
Submit corrections

↑ Back to top | Tablatures and chords for acoustic guitar and electric guitar, ukulele, drums are parodies/interpretations of the original songs. You may use it for private study, scholarship, research or language learning purposes only