» » »

Cranberries - Ode To My Family Bass

Artists:  A B C D E F G H I J K L M N O P Q R S T U V W X Y Z # 

Ode To My Family Bass

(ver. 3) Click to play this song!
Cranberries
 Rating:
2/5 (26 votes)

 Ode To My Family lessons Tabs too difficult? Try these video lessons and learn fast
 
                Main riff (x5) [0:00-0:52]
G|----------------------------------|
D|----------------------------------|
A|-5~~5~~~~2~~2~~~~------------2-4~-|
E|-----------------2~~2~~~~3~~3-3---|

Riff variation (x2) [0:53-1:13]
G|----------------------------------|
D|------54~-------------------------|
A|-5~~5~---2~~2~42~------------2-4~-|
E|-----------------2~~2~~~~3~~3-3---|

Chorus (x4) [1:14-1:53]
G|----------------------------------|
D|----------------------------------|
A|-5~~555202~~2~420-----4~-----2-24-|
E|-----------------2~~2~--23~~3-3---|

Repeat Riff variation (x1) [1:54-2:03]

Repeat Main riff (x2) [2:04-2:24]

Repeat Riff variation (x2) [2:25-2:44]

Repeat Chorus (x10) [2:45-4:24]

End [4:24-4:30]
G|-----------|
D|-----------|
A|-5~~~~~~~~-|
E|-----------|            
Submit corrections


        Ode To My Family lessons Hard to play? Try these video lessons and learn fast Ode To My Family lessons
        
↑ Back to top | Tablatures and chords for acoustic guitar and electric guitar, ukulele, drums are parodies/interpretations of the original songs. You may use it for private study, scholarship, research or language learning purposes only