» » »

Cranberries - Ode To My Family Bass

Artists:  A B C D E F G H I J K L M N O P Q R S T U V W X Y Z # 

Ode To My Family Bass

(ver. 1) Click to play this song!
Cranberries
 Rating:
4/5 (4 votes)

 Ode To My Family lessons Tabs too difficult? Try these video lessons and learn fast
 
                The Cranberries - Ode To My Family

Riff A
G|-----------------------------------------------------------
D|-----------------------------------------------------------
A|-5----5-----2----2-----------------------0-0-3-------------
E|-----------------------2----2-----3----3-------------------

Riff B
G|-----------------------------------------------------------
D|-----------7-7------------4-4------------------------------
A|-5----5---------2----2---------------------------0-0-3-----
E|-------------------------------2----2-----3----3-----------

Riff C
G|-----------------------------------------------------------
D|-----------7-7------------4-4------------------------------
A|-5----5---------2----2---------------------------0-0-3-3---
E|-------------------------------2----2-----3----3-----------

Riff D
G|-----------------------------------------------------------
D|------7--7-5-4-------4--4-2-0------------------------------
A|-5--5-----------2--2------------------------------0-0-3----
E|-------------------------------2----2--2-2-3-3--3----------

Riff E
G|-----------------------------------------------------------
D|-----------7-7------------4-4------------------------------
A|-5----5---------2----2----------------------------0-0-3-3--
E|-------------------------------2----2-----3-3---3----------

Riff F
G|-----------------------------------------------------------
D|------7--7-5-4-------4--4-2-0------------------------------
A|-5--5-----------2--2------------------------------0-0-3-3--
E|-------------------------------2----2--2-2-3-3--3----------

Riff G
G|-----------------------------------------------------------
D|------7-77-5-4-------4-44-2-0------------------------------
A|-5--5-----------2--2------------------------------0-0-3-3--
E|-------------------------------2----2--2-2-3-3--3----------

Riff H
G|-----------------------------------------------------------
D|-----------------------------------------------------------
A|-5---------------------------------------------------------
E|-----------------------------------------------------------


Structure

A  5x
B  1x
C  1x
D  2x
F  2x
B  1x
A  2x
B  1x
E  1x
F  6x
G  4x
H  1x
            
Submit corrections


        Ode To My Family lessons Hard to play? Try these video lessons and learn fast Ode To My Family lessons
        
↑ Back to top | Tablatures and chords for acoustic guitar and electric guitar, ukulele, drums are parodies/interpretations of the original songs. You may use it for private study, scholarship, research or language learning purposes only