» » »

Craig Morgan - Thats What I Love About Sundays Tabs

Artists:  A B C D E F G H I J K L M N O P Q R S T U V W X Y Z # 

Thats What I Love About Sundays Tabs

(ver. 2) Click to play this song!
Craig Morgan
 Rating:
4/5 (5 votes)

 Thats What I Love About Sundays lessons Tabs too difficult? Try these video lessons and learn fast
 
                (Intro)
not perfect but its what i use....

CAPO 1

PIANO INTRO:  strum the first few notes of C-Bm-Am-G then use the intro

-------------------------------------------------------------------
--------------1/3----1/3---1p0--------------------0----------------
-----------0--2/4----2/4---2p0---0------0---0---0-0h2p0--0---------
-0h2--0h2------------------------2p0---0h2--0h2----------2p0--2----
-------------------------------------------------------------------
-------------------------------------------------------------------

--------------1/3---3----------3-3-3---x---3--------0------
--------1/3---3/5---5---3\1p0--1-1-1---x---1--------1------
-----0--2/4-------------4\2p0--2-2-2---x---2--------0------
-0h2---------------------------0-0-0---x---0--------2------  
----------------------------------------------0--2--3-------
-----------------------------------------------------------
            
Submit corrections


        Thats What I Love About Sundays lessons Hard to play? Try these video lessons and learn fast Thats What I Love About Sundays lessons
        
↑ Back to top | Tablatures and chords for acoustic guitar and electric guitar, ukulele, drums are parodies/interpretations of the original songs. You may use it for private study, scholarship, research or language learning purposes only