» » »

Cradle Of Filth - Medusa And Hemlock Chords

Artists:  A B C D E F G H I J K L M N O P Q R S T U V W X Y Z # 

Medusa And Hemlock Chords

(ver. 1) Click to play this song!
Cradle Of Filth
 Rating:
4.3/5 (26 votes)

 Medusa And Hemlock lessons Tabs too difficult? Try these video lessons and learn fast
 
                

D|-------------------------------------------------------------------|
A|-------------------------------------------------------------------|
F|-------------------------------------------------------------------|
C|-7-7-7-7-8-7-7-7-7-7-7-7-10-8-7-7-7-7-7-7-8-7-7-7-7-7-7-7-10-8-7-7-|
G|-0-0-0-0-0-0-0-0-0-0-0-0--0-0-0-0-0-0-0-0-0-0-0-0-0-0-0-0--0-0-0-0-|
D|-------------------------------------------------------------------|


D|---------------------------------------------------------------|
A|---------------------------------------------------------------|
F|------------------------------------------------------12-12~---|
C|-7-7-7-7-5-5-5-5-7-7-7-7--8--8--8--8-7-7-7-7-5-5-5-5---x--x----|
G|-8-8-8-8-7-7-7-7-8-8-8-8-10-10-10-10-8-8-8-8-7-7-7-7-/10-10~---|
D|---------------------------------------------------------------|


D|-------------------------------------------------------------------|
A|-------------------------------------------------------------------|
F|-------------------------------------------------------------------|
C|-7-7-7-7-8-7-7-7-7-7-7-7-10-8-7-7-7-7-7-7-8-7-7-7-7-7-7-7-10-8-7-7-|
G|-0-0-0-0-0-0-0-0-0-0-0-0--0-0-0-0-0-0-0-0-0-0-0-0-0-0-0-0--0-0-0-0-|
D|-------------------------------------------------------------------|


D|---------------------------------------------------------------|
A|---------------------------------------------------------------|
F|------------------------------------------------------12-12~---|
C|-7-7-7-7-5-5-5-5-7-7-7-7--8--8--8--8-7-7-7-7-5-5-5-5---x--x----|
G|-8-8-8-8-7-7-7-7-8-8-8-8-10-10-10-10-8-8-8-8-7-7-7-7-/10-10~---|
D|---------------------------------------------------------------|


D|-------------------------------------------------------------------|
A|-------------------------------------------------------------------|
F|-------------------------------------------------------------------|
C|-7-7-7-7-8-7-7-7-7-7-7-7-10-8-7-7-7-7-7-7-8-7-7-7-7-7-7-7-10-8-7-7-|
G|-0-0-0-0-0-0-0-0-0-0-0-0--0-0-0-0-0-0-0-0-0-0-0-0-0-0-0-0--0-0-0-0-|
D|-------------------------------------------------------------------|


D|---------------------------------------------------------------|
A|---------------------------------------------------------------|
F|------------------------------------------------------12-12~---|
C|-7-7-7-7-5-5-5-5-7-7-7-7--8--8--8--8-7-7-7-7-5-5-5-5---x--x----|
G|-8-8-8-8-7-7-7-7-8-8-8-8-10-10-10-10-8-8-8-8-7-7-7-7-/10-10~---|
D|---------------------------------------------------------------|


D|-------------------------------------------------------------------|
A|-------------------------------------------------------------------|
F|-------------------------------------------------------------------|
C|-7-7-7-7-8-7-7-7-7-7-7-7-10-8-7-7-7-7-7-7-8-7-7-7-7-7-7-7-10-8-7-7-|
G|-0-0-0-0-0-0-0-0-0-0-0-0--0-0-0-0-0-0-0-0-0-0-0-0-0-0-0-0--0-0-0-0-|
D|-------------------------------------------------------------------|


D|-------------------------------------------------------------|
A|-------------------------------------------------------------|
F|-------------------------------------------------------------|
C|-7-7-7-7-5-5-5-5-7-7-7-7--8--8--8--8-7-7-7-7-5-5-5-5---------|
G|-8-8-8-8-7-7-7-7-8-8-8-8-10-10-10-10-8-8-8-8-7-7-7-7-5-4-3-2-|
D|-----------------------------------------------------5-4-3-2-|
                                                       * * * * 



0:28

L
D|---------------------------------------------------------------------|
A|------------------___------------------------------------------------|
F|------___--------/   \--------___-----^--7---------------------------|
C|-7---/   \---7--8-7-8-7--7---/   \---5-6---6--5--8--7--8--5--8--6--9-|
G|-5--6-5-6-5--5-----------5--6-5-6-5-----------3--6--5--6--3--6--4--7-|
D|---------------------------------------------------------------------|

R
D|---------------------------------------------------------------------|
A|------------------___------------------------------------------------|
F|------___--------/   \--------___------------------------------------|
C|-7---/   \---7--8-7-8-7--7---/   \----^--7----5--8--7--8--5--8--6--9-|
G|-5--6-5-6-5--5-----------5--6-5-6-5--5-6---6--3--6--5--6--3--6--4--7-|
D|---------------------------------------------------------------------|


L
D|---------------------------------------------------------------------|
A|------------------___------------------------------------------------|
F|------___--------/   \--------___-----^--7---------------------------|
C|-7---/   \---7--8-7-8-7--7---/   \---5-6---6--5--8--7--8--5--8--6--9-|
G|-5--6-5-6-5--5-----------5--6-5-6-5-----------3--6--5--6--3--6--4--7-|
D|---------------------------------------------------------------------|

R
D|---------------------------------------------------------------------|
A|------------------___------------------------------------------------|
F|------___--------/   \--------___------------------------------------|
C|-7---/   \---7--8-7-8-7--7---/   \----^--7----5--8--7--8--5--8--6--9-|
G|-5--6-5-6-5--5-----------5--6-5-6-5--5-6---6--3--6--5--6--3--6--4--7-|
D|---------------------------------------------------------------------|






0:38


D|-----------------------------------------------------------------|
A|-----------------------------------------------------------------|
F|-----------------------------------------------------------------|
C|-----------------------------------------------------------------|
G|-----------------------------------------------------------------|
D|-3-3-3-3-6-3-6-3-3-3-3-3-6-3-6-3-3-3-3-3-6-3-6-3-3-3-3-3-6-3-6-3-|


D|---------------------------------------------------------|
A|---------------------------------------------------------|
F|---------------------------------------------------------|
C|---------------------------------------------------------|
G|---------------------------------------------------------|
D|-2-2-2-2-5-2-5-2-2-2-2-2-5-2-5-2-3--6--2--5--3--6--5--8--|



D|-----------------------------------------------------------------|
A|-----------------------------------------------------------------|
F|-----------------------------------------------------------------|
C|-----------------------------------------------------------------|
G|-----------------------------------------------------------------|
D|-3-3-3-3-6-3-6-3-3-3-3-3-6-3-6-3-3-3-3-3-6-3-6-3-3-3-3-3-6-3-6-3-|


D|---------------------------------------------------------|
A|---------------------------------------------------------|
F|---------------------------------------------------------|
C|---------------------------------------------------------|
G|---------------------------------------------------------|
D|-2-2-2-2-5-2-5-2-2-2-2-2-5-2-5-2-3--6--2--5--3--6--5--8--|




0:51



D|---------------------------------------------------------------|
A|---------------------------------------------------------------|
F|---------------------------------------------------------------|
C|-7--------7-8-8-------------------11-------10-11-10------6--4--|
G|-5--------5-6-6--------5-6-11-10---9--------8-9---8------4--2--|
D|-5--------5/6-6--------5-6-11-10---9--------8/9---8------4--2--|
                         * *  *  *

D|---------------------------------------------------------------|
A|---------------------------------------------------------------|
F|---------------------------------------------------------------|
C|-7--------7-8-8-----------------5--------5-6-6-13------6--6----|
G|-5--------5-6-6--------5-6-5-4--3--------3-4-4-11------4--4----|
D|-5--------5/6-6--------5-6-5-4--3--------3/4-4/11------4--4----|
                         * * * *




D|---------------------------------------------------------------|
A|---------------------------------------------------------------|
F|---------------------------------------------------------------|
C|-7--------7-8-8-------------------11-------10-11-10------6--4--|
G|-5--------5-6-6--------5-6-11-10---9--------8-9---8------4--2--|
D|-5--------5/6-6--------5-6-11-10---9--------8/9---8------4--2--|
                         * *  *  *

D|---------------------------------------------------------------|
A|---------------------------------------------------------------|
F|---------------------------------------------------------------|
C|-7--------7-8-8-----------------5--------5-6-6-13------6--6----|
G|-5--------5-6-6--------5-6-5-4--3--------3-4-4-11------4--4----|
D|-5--------5/6-6--------5-6-5-4--3--------3/4-4/11------4--4----|
                         * * * *




1:15


L
D|---------------------------------------------------------------------------------------|
A|---------------------------------------------------------------------------------------|
F|---------------------------------------------------------------------------------------|
C|----10--11--10-----10-----10--11--10-----10-----10--11--10-----10--8--10--8------------|
G|-8--------------8------8--------------8------8--------------8----------------11--10--8-|
D|---------------------------------------------------------------------------------------|

R
D|-------------------------------------------------------------------------------------|
A|-------------------------------------------------------------------------------------|
F|----12--13--12----12----12--13--12----12----12--13--12----12--10--12--10-------------|
C|-10------------10----10------------10----10------------10-----------------13--12--10-|
G|-------------------------------------------------------------------------------------|
D|-------------------------------------------------------------------------------------|


L
D|------------------------------------------------------------------------------|
A|------------------------------------------------------------------------------|
F|------------------------------------------------------------------------------|
C|----9--10--9-----9-----9--10--9-----9------9--10--9-----9--7--9--7------7-----|
G|-7------------7-----7------------7-----7-------------7--------------10-----10-|
D|------------------------------------------------------------------------------|

R
D|---------------------------------------------------------------------------|
A|---------------------------------------------------------------------------|
F|---11--12--11---11---11--12--11---11---11--12--11---11--9--11--9----9------|
C|-9------------9----9------------9----9------------9--------------12----12--|
G|---------------------------------------------------------------------------|
D|---------------------------------------------------------------------------|






L
D|---------------------------------------------------------------------------------------|
A|---------------------------------------------------------------------------------------|
F|---------------------------------------------------------------------------------------|
C|----10--11--10-----10-----10--11--10-----10-----10--11--10-----10--8--10--8------------|
G|-8--------------8------8--------------8------8--------------8----------------11--10--8-|
D|---------------------------------------------------------------------------------------|

R
D|-------------------------------------------------------------------------------------|
A|-------------------------------------------------------------------------------------|
F|----12--13--12----12----12--13--12----12----12--13--12----12--10--12--10-------------|
C|-10------------10----10------------10----10------------10-----------------13--12--10-|
G|-------------------------------------------------------------------------------------|
D|-------------------------------------------------------------------------------------|


L
D|------------------------------------------------------------------------------|
A|------------------------------------------------------------------------------|
F|------------------------------------------------------------------------------|
C|----9--10--9-----9-----9--10--9-----9------9--10--9-----9--7--9--7------7-----|
G|-7------------7-----7------------7-----7-------------7--------------10-----10-|
D|------------------------------------------------------------------------------|

R
D|---------------------------------------------------------------------------|
A|---------------------------------------------------------------------------|
F|---11--12--11---11---11--12--11---11---11--12--11---11--9--11--9----9------|
C|-9------------9----9------------9----9------------9--------------12----12--|
G|---------------------------------------------------------------------------|
D|---------------------------------------------------------------------------|



D|-----------------------------------------|
A|-----------------------------------------|
F|-----------------------------------------|
C|-7----------3----------6-----------------|
G|-5--5-5-5-5-1--1-1-1-1-4-4-4-4-4--5--5---|
D|----------------------------------3--3---|
      * * * *    * * * *   * * * *  *  *





1:38


D|-------------------------------------------------------------------|
A|-------------------------------------------------------------------|
F|-------------------------------------------------------------------|
C|-7-7-7-7-8-7-7-7-7-7-7-7-10-8-7-7-7-7-7-7-8-7-7-7-7-7-7-7-10-8-7-7-|
G|-0-0-0-0-0-0-0-0-0-0-0-0--0-0-0-0-0-0-0-0-0-0-0-0-0-0-0-0--0-0-0-0-|
D|-------------------------------------------------------------------|


D|---------------------------------------------------------------|
A|---------------------------------------------------------------|
F|------------------------------------------------------12-12~---|
C|-7-7-7-7-5-5-5-5-7-7-7-7--8--8--8--8-7-7-7-7-5-5-5-5---x--x----|
G|-8-8-8-8-7-7-7-7-8-8-8-8-10-10-10-10-8-8-8-8-7-7-7-7-/10-10~---|
D|---------------------------------------------------------------|


D|-------------------------------------------------------------------|
A|-------------------------------------------------------------------|
F|-------------------------------------------------------------------|
C|-7-7-7-7-8-7-7-7-7-7-7-7-10-8-7-7-7-7-7-7-8-7-7-7-7-7-7-7-10-8-7-7-|
G|-0-0-0-0-0-0-0-0-0-0-0-0--0-0-0-0-0-0-0-0-0-0-0-0-0-0-0-0--0-0-0-0-|
D|-------------------------------------------------------------------|


D|-------------------------------------------------------------|
A|-------------------------------------------------------------|
F|-------------------------------------------------------------|
C|-7-7-7-7-5-5-5-5-7-7-7-7--8--8--8--8-7-7-7-7-5-5-5-5---------|
G|-8-8-8-8-7-7-7-7-8-8-8-8-10-10-10-10-8-8-8-8-7-7-7-7-5-4-3-2-|
D|-----------------------------------------------------5-4-3-2-|
                                                       * * * * 


1:51

L
D|---------------------------------------------------------------------|
A|------------------___------------------------------------------------|
F|------___--------/   \--------___-----^--7---------------------------|
C|-7---/   \---7--8-7-8-7--7---/   \---5-6---6--5--8--7--8--5--8--6--9-|
G|-5--6-5-6-5--5-----------5--6-5-6-5-----------3--6--5--6--3--6--4--7-|
D|---------------------------------------------------------------------|

R
D|---------------------------------------------------------------------|
A|------------------___------------------------------------------------|
F|------___--------/   \--------___------------------------------------|
C|-7---/   \---7--8-7-8-7--7---/   \----^--7----5--8--7--8--5--8--6--9-|
G|-5--6-5-6-5--5-----------5--6-5-6-5--5-6---6--3--6--5--6--3--6--4--7-|
D|---------------------------------------------------------------------|


L
D|---------------------------------------------------------------------|
A|------------------___------------------------------------------------|
F|------___--------/   \--------___-----^--7---------------------------|
C|-7---/   \---7--8-7-8-7--7---/   \---5-6---6--5--8--7--8--5--8--6--9-|
G|-5--6-5-6-5--5-----------5--6-5-6-5-----------3--6--5--6--3--6--4--7-|
D|---------------------------------------------------------------------|

R
D|---------------------------------------------------------------------|
A|------------------___------------------------------------------------|
F|------___--------/   \--------___------------------------------------|
C|-7---/   \---7--8-7-8-7--7---/   \----^--7----5--8--7--8--5--8--6--9-|
G|-5--6-5-6-5--5-----------5--6-5-6-5--5-6---6--3--6--5--6--3--6--4--7-|
D|---------------------------------------------------------------------|





2:02


D|-----------------------------------------------------------------|
A|-----------------------------------------------------------------|
F|-----------------------------------------------------------------|
C|-----------------------------------------------------------------|
G|-----------------------------------------------------------------|
D|-3-3-3-3-6-3-6-3-3-3-3-3-6-3-6-3-3-3-3-3-6-3-6-3-3-3-3-3-6-3-6-3-|


D|---------------------------------------------------------|
A|---------------------------------------------------------|
F|---------------------------------------------------------|
C|---------------------------------------------------------|
G|---------------------------------------------------------|
D|-2-2-2-2-5-2-5-2-2-2-2-2-5-2-5-2-3--6--2--5--3--6--5--8--|


D|-----------------------------------------------------------------|
A|-----------------------------------------------------------------|
F|-----------------------------------------------------------------|
C|-----------------------------------------------------------------|
G|-----------------------------------------------------------------|
D|-3-3-3-3-6-3-6-3-3-3-3-3-6-3-6-3-3-3-3-3-6-3-6-3-3-3-3-3-6-3-6-3-|


D|---------------------------------------------------------|
A|---------------------------------------------------------|
F|---------------------------------------------------------|
C|---------------------------------------------------------|
G|---------------------------------------------------------|
D|-2-2-2-2-5-2-5-2-2-2-2-2-5-2-5-2-3--6--2--5--3--6--5--8--|



2:14


D|---------------------------------------------------------------|
A|---------------------------------------------------------------|
F|---------------------------------------------------------------|
C|-7--------7-8-8-------------------11-------10-11-10------6--4--|
G|-5--------5-6-6--------5-6-11-10---9--------8-9---8------4--2--|
D|-5--------5/6-6--------5-6-11-10---9--------8/9---8------4--2--|
                         * *  *  *

D|---------------------------------------------------------------|
A|---------------------------------------------------------------|
F|---------------------------------------------------------------|
C|-7--------7-8-8-----------------5--------5-6-6-13------6--6----|
G|-5--------5-6-6--------5-6-5-4--3--------3-4-4-11------4--4----|
D|-5--------5/6-6--------5-6-5-4--3--------3/4-4/11------4--4----|
                         * * * *

D|---------------------------------------------------------------|
A|---------------------------------------------------------------|
F|---------------------------------------------------------------|
C|-7--------7-8-8-------------------11-------10-11-10------6--4--|
G|-5--------5-6-6--------5-6-11-10---9--------8-9---8------4--2--|
D|-5--------5/6-6--------5-6-11-10---9--------8/9---8------4--2--|
                         * *  *  *

D|---------------------------------------------------------------|
A|---------------------------------------------------------------|
F|---------------------------------------------------------------|
C|-7--------7-8-8-----------------5--------5-6-6-13------6--6----|
G|-5--------5-6-6--------5-6-5-4--3--------3-4-4-11------4--4----|
D|-5--------5/6-6--------5-6-5-4--3--------3/4-4/11------4--4----|
                         * * * *




2:38

L
D|---------------------------------------------------------------------------------------|
A|---------------------------------------------------------------------------------------|
F|---------------------------------------------------------------------------------------|
C|----10--11--10-----10-----10--11--10-----10-----10--11--10-----10--8--10--8------------|
G|-8--------------8------8--------------8------8--------------8----------------11--10--8-|
D|---------------------------------------------------------------------------------------|

R
D|-------------------------------------------------------------------------------------|
A|-------------------------------------------------------------------------------------|
F|----12--13--12----12----12--13--12----12----12--13--12----12--10--12--10-------------|
C|-10------------10----10------------10----10------------10-----------------13--12--10-|
G|-------------------------------------------------------------------------------------|
D|-------------------------------------------------------------------------------------|


L
D|------------------------------------------------------------------------------|
A|------------------------------------------------------------------------------|
F|------------------------------------------------------------------------------|
C|----9--10--9-----9-----9--10--9-----9------9--10--9-----9--7--9--7------7-----|
G|-7------------7-----7------------7-----7-------------7--------------10-----10-|
D|------------------------------------------------------------------------------|

R
D|---------------------------------------------------------------------------|
A|---------------------------------------------------------------------------|
F|---11--12--11---11---11--12--11---11---11--12--11---11--9--11--9----9------|
C|-9------------9----9------------9----9------------9--------------12----12--|
G|---------------------------------------------------------------------------|
D|---------------------------------------------------------------------------|




L
D|---------------------------------------------------------------------------------------|
A|---------------------------------------------------------------------------------------|
F|---------------------------------------------------------------------------------------|
C|----10--11--10-----10-----10--11--10-----10-----10--11--10-----10--8--10--8------------|
G|-8--------------8------8--------------8------8--------------8----------------11--10--8-|
D|---------------------------------------------------------------------------------------|

R
D|-------------------------------------------------------------------------------------|
A|-------------------------------------------------------------------------------------|
F|----12--13--12----12----12--13--12----12----12--13--12----12--10--12--10-------------|
C|-10------------10----10------------10----10------------10-----------------13--12--10-|
G|-------------------------------------------------------------------------------------|
D|-------------------------------------------------------------------------------------|


L
D|------------------------------------------------------------------------------|
A|------------------------------------------------------------------------------|
F|------------------------------------------------------------------------------|
C|----9--10--9-----9-----9--10--9-----9------9--10--9-----9--7--9--7------7-----|
G|-7------------7-----7------------7-----7-------------7--------------10-----10-|
D|------------------------------------------------------------------------------|

R
D|---------------------------------------------------------------------------|
A|---------------------------------------------------------------------------|
F|---11--12--11---11---11--12--11---11---11--12--11---11--9--11--9----9------|
C|-9------------9----9------------9----9------------9--------------12----12--|
G|---------------------------------------------------------------------------|
D|---------------------------------------------------------------------------|




2:56



L
D|-------------------------------------------------------------------------|
A|-------------------------------------------------------------------------|
F|-------------------------------------------------------------------------|
C|-------------------------------------------------------------------------|
G|----5--6--5-----5-----5--6--5-----5-----5--6--5-----5--3--5--3-----------|
D|-3-----------3-----3-----------3-----3-----------3--------------6--5--3--|

R
D|------------------------------------------------------------------------|
A|------------------------------------------------------------------------|
F|------------------------------------------------------------------------|
C|----7--8--7-----7-----7--8--7-----7-----7--8--7-----7--5--7--5----------|
G|-5-----------5-----5-----------5-----5-----------5--------------8--7--5-|
D|------------------------------------------------------------------------|


L
D|------------------------------------------------------------------------|
A|------------------------------------------------------------------------|
F|------------------------------------------------------------------------|
C|------------------------------------------------------------------------|
G|----4--5--4-----4-----4--5--4-----4-----4--5--4-----4--2--4--2-----2----|
D|-2-----------2-----2-----------2-----2-----------2--------------5-----5-|

R
D|------------------------------------------------------------------------|
A|------------------------------------------------------------------------|
F|------------------------------------------------------------------------|
C|----6--7--6-----6------6--7--6-----6-----6--7--6-----6--4--6--4-----4---|
G|-4-----------4------4-----------4-----4-----------4--------------7-----7|
D|------------------------------------------------------------------------|






L
D|-------------------------------------------------------------------------|
A|-------------------------------------------------------------------------|
F|-------------------------------------------------------------------------|
C|-------------------------------------------------------------------------|
G|----5--6--5-----5-----5--6--5-----5-----5--6--5-----5--3--5--3-----------|
D|-3-----------3-----3-----------3-----3-----------3--------------6--5--3--|

R
D|------------------------------------------------------------------------|
A|------------------------------------------------------------------------|
F|------------------------------------------------------------------------|
C|----7--8--7-----7-----7--8--7-----7-----7--8--7-----7--5--7--5----------|
G|-5-----------5-----5-----------5-----5-----------5--------------8--7--5-|
D|------------------------------------------------------------------------|


L
D|------------------------------------------------------------------------|
A|------------------------------------------------------------------------|
F|------------------------------------------------------------------------|
C|------------------------------------------------------------------------|
G|----4--5--4-----4-----4--5--4-----4-----4--5--4-----4--2--4--2-----2----|
D|-2-----------2-----2-----------2-----2-----------2--------------5-----5-|

R
D|------------------------------------------------------------------------|
A|------------------------------------------------------------------------|
F|------------------------------------------------------------------------|
C|----6--7--6-----6------6--7--6-----6-----6--7--6-----6--4--6--4-----4---|
G|-4-----------4------4-----------4-----4-----------4--------------7-----7|
D|------------------------------------------------------------------------|






3:15

WITH WAH   GRADUALLY CLOSE+|
       GRADUALLY BEND TWICE|  OPEN                                             CLOSED
       _____       _____                                                        PH~~~~~
D|-/// )-------/// )------------------------------------------------PH------------)----|
A|-12----------12---------10-12-14-12-10-12-14-12-10-12-14-12-10-12-14-12-10-12-14-----|
F|-------------------------------------------------------------------------------------|
C|-------------------------------------------------------------------------------------|
G|-------------------------------------------------------------------------------------|
D|-------------------------------------------------------------------------------------|

R
D|---------------------------------------------------------------|
A|---------------------------------------------------------------|
F|---------------------------------------------------------------|
C|-7--------7-8-8-------------------11-------10-11-10------6--4--|
G|-5--------5-6-6--------5-6-11-10---9--------8-9---8------4--2--|
D|-5--------5/6-6--------5-6-11-10---9--------8/9---8------4--2--|
                         * *  *  *




  OPEN
D|---)(---------)~~---)(-----------------------------------------|
A|-13---10-13-13----12-------------------------------------------|
F|---------------------------10-12-12~~~~--P---------------------|
C|------------------------12-----------------S-------------------|
G|---------------------------------------------------------------|
D|---------------------------------------------------------------|

R
D|---------------------------------------------------------------|
A|---------------------------------------------------------------|
F|---------------------------------------------------------------|
C|-7--------7-8-8-----------------5--------5-6-6-13------6--6----|
G|-5--------5-6-6--------5-6-5-4--3--------3-4-4-11------4--4----|
D|-5--------5/6-6--------5-6-5-4--3--------3/4-4/11------4--4----|
                         * * * *




3:27

D|----------------_____________----------------------------------|
A|----------------)     (       \---------------)   (------------|
F|-/14~~~-14-15-14-----[14]-15-14-11~~~~-10-11-10------~~~~------|
C|---------------------------------------------------------------|
G|---------------------------------------------------------------|
D|---------------------------------------------------------------|

R
D|---------------------------------------------------------------|
A|---------------------------------------------------------------|
F|---------------------------------------------------------------|
C|-7--------7-8-8-------------------11-------10-11-10------6--4--|
G|-5--------5-6-6--------5-6-11-10---9--------8-9---8------4--2--|
D|-5--------5/6-6--------5-6-11-10---9--------8/9---8------4--2--|
                         * *  *  *

                                                       )
D|---------------------------------------------------20---------------------|
A|----------------------)-----)(----------)-18--|~~---------20--------------|
F|-/14~~~-14--15--17--17----17----15-17-17-----17-----------19~~~~~~WITH BAR|
C|--------------------------------------------------------------------------|
G|--------------------------------------------------------------------------|
D|--------------------------------------------------------------------------|

R
D|---------------------------------------------------------------|
A|---------------------------------------------------------------|
F|---------------------------------------------------------------|
C|-7--------7-8-8-----------------5--------5-6-6-13------6--6----|
G|-5--------5-6-6--------5-6-5-4--3--------3-4-4-11------4--4----|
D|-5--------5/6-6--------5-6-5-4--3--------3/4-4/11------4--4----|
                         * * * *



3:40

D|----------------------------------------------------------|
A|----------------------------------------------------------|
F|----------------------------------------------------------|
C|-5------5---5------5---5-------4------4---4------4---4----|
G|-5------5---5------5---5-------4------4---4------4---4----|
D|-3------3---3------3---3-------2------2---2------2---2----|
     |          |          |       |          |          |



D|----------------------------------------------------------|
A|----------------------------------------------------------|
F|----------------------------------------------------------|
C|-5------5---5------5---5-------4------4---4------4---4----|
G|-5------5---5------5---5-------4------4---4------4---4----|
D|-3------3---3------3---3-------2------2---2------2---2----|
     |          |          |       |          |          |




3:59


D|-------------------------------------------------------------------|
A|-------------------------------------------------------------------|
F|-------------------------------------------------------------------|
C|-7-7-7-7-8-7-7-7-7-7-7-7-10-8-7-7-7-7-7-7-8-7-7-7-7-7-7-7-10-8-7-7-|
G|-0-0-0-0-0-0-0-0-0-0-0-0--0-0-0-0-0-0-0-0-0-0-0-0-0-0-0-0--0-0-0-0-|
D|-------------------------------------------------------------------|


D|---------------------------------------------------------------|
A|---------------------------------------------------------------|
F|------------------------------------------------------12-12~---|
C|-7-7-7-7-5-5-5-5-7-7-7-7--8--8--8--8-7-7-7-7-5-5-5-5---x--x----|
G|-8-8-8-8-7-7-7-7-8-8-8-8-10-10-10-10-8-8-8-8-7-7-7-7-/10-10~---|
D|---------------------------------------------------------------|


D|-------------------------------------------------------------------|
A|-------------------------------------------------------------------|
F|-------------------------------------------------------------------|
C|-7-7-7-7-8-7-7-7-7-7-7-7-10-8-7-7-7-7-7-7-8-7-7-7-7-7-7-7-10-8-7-7-|
G|-0-0-0-0-0-0-0-0-0-0-0-0--0-0-0-0-0-0-0-0-0-0-0-0-0-0-0-0--0-0-0-0-|
D|-------------------------------------------------------------------|


D|---------------------------------------------------------------|
A|---------------------------------------------------------------|
F|------------------------------------------------------12-12~---|
C|-7-7-7-7-5-5-5-5-7-7-7-7--8--8--8--8-7-7-7-7-5-5-5-5---x--x----|
G|-8-8-8-8-7-7-7-7-8-8-8-8-10-10-10-10-8-8-8-8-7-7-7-7-/10-10~---|
D|---------------------------------------------------------------|






D|-----------------------------------------------------------------|
A|-----------------------------------------------------------------|
F|-----------------------------------------------------------------|
C|-----------------------------------------------------------------|
G|-----------------------------------------------------------------|
D|-3-3-3-3-6-3-6-3-3-3-3-3-6-3-6-3-3-3-3-3-6-3-6-3-3-3-3-3-6-3-6-3-|


D|---------------------------------------------------------|
A|---------------------------------------------------------|
F|---------------------------------------------------------|
C|---------------------------------------------------------|
G|---------------------------------------------------------|
D|-2-2-2-2-5-2-5-2-2-2-2-2-5-2-5-2-3--6--2--5--3--6--5--8--|



D|-----------------------------------------------------------------|
A|-----------------------------------------------------------------|
F|-----------------------------------------------------------------|
C|-----------------------------------------------------------------|
G|-----------------------------------------------------------------|
D|-3-3-3-3-6-3-6-3-3-3-3-3-6-3-6-3-3-3-3-3-6-3-6-3-3-3-3-3-6-3-6-3-|


D|---------------------------------------------------------|
A|---------------------------------------------------------|
F|---------------------------------------------------------|
C|---------------------------------------------------------|
G|---------------------------------------------------------|
D|-2-2-2-2-5-2-5-2-2-2-2-2-5-2-5-2-3--6--2--5--3--6--5--8--|





D|-----------------------------------------------------------------|
A|-----------------------------------------------------------------|
F|-----------------------------------------------------------------|
C|-----------------------------------------------------------------|
G|-----------------------------------------------------------------|
D|-3-3-3-3-6-3-6-3-3-3-3-3-6-3-6-3-3-3-3-3-6-3-6-3-3-3-3-3-6-3-6-3-|


D|---------------------------------------------------------|
A|---------------------------------------------------------|
F|---------------------------------------------------------|
C|---------------------------------------------------------|
G|---------------------------------------------------------|
D|-2-2-2-2-5-2-5-2-2-2-2-2-5-2-5-2-3--6--2--5--3--6--5--8--|



D|-----------------------------------------------------------------|
A|-----------------------------------------------------------------|
F|-----------------------------------------------------------------|
C|-----------------------------------------------------------------|
G|-----------------------------------------------------------------|
D|-3-3-3-3-6-3-6-3-3-3-3-3-6-3-6-3-3-3-3-3-6-3-6-3-3-3-3-3-6-3-6-3-|


D|---------------------------------------------------------|
A|---------------------------------------------------------|
F|---------------------------------------------------------|
C|---------------------------------------------------------|
G|---------------------------------------------------------|
D|-2-2-2-2-5-2-5-2-2-2-2-2-5-2-5-2-3--6--2--5--3--6--5--8--|


D|---------------------------------------------------------------|
A|---------------------------------------------------------------|
F|--------------------------------------------------7------------|
C|--------------------------------------------------7------------|
G|--------------------------------------------------5---\--------|
D|-3--6--2--5--3--6--5--8--3--6--2--5--3--6--5--8----------------|            
Submit corrections


        Medusa And Hemlock lessons Hard to play? Try these video lessons and learn fast Medusa And Hemlock lessons
        
↑ Back to top | Tablatures and chords for acoustic guitar and electric guitar, ukulele, drums are parodies/interpretations of the original songs. You may use it for private study, scholarship, research or language learning purposes only