» » »

Cradle Of Filth - Hammer Of The Witches Tabs

Artists:  A B C D E F G H I J K L M N O P Q R S T U V W X Y Z # 

Hammer Of The Witches Tabs

(ver. 1) Click to play this song!
Cradle Of Filth
 Rating:
4.1/5 (31 vote)

 Hammer Of The Witches lessons Tabs too difficult? Try these video lessons and learn fast
 
                DGCFAD




L
D|--------------------------------------------------------------------------------------------|
A|--------------------------------------------------------------------------------------------|
F|------------------------------------------------------------------------------____----------|
C|-7--------9-------10--------6--------7--------9-------10--------8------------/    \---------|
G|-7--------7--------7--------7--------7--------7--------7--------6--------10-9-10-9\7-9-7-6--|
D|-5--------5--------5--------4--------5--------5--------5--------6---------------------------|

R
D|--------------------------------------------------------------------------------------------|
A|------------------------------------------------------------------------------_____---------|
F|-----------------------------------------------------------------------------/     \--------|
C|-7--------9-------10--------6--------7--------9-------10--------8-------12-11-12-11\9-11-9-8|
G|-7--------7--------7--------7--------7--------7--------7--------6---------------------------|
D|-5--------5--------5--------4--------5--------5--------5--------6---------------------------|







D|------------------------------------------------------------------------------------------------|
A|------------------------------------------------------------------------------------------------|
F|-9-----------9-----------9-----------9----------11----------12------------11----------12--12-11-|
C|-9-----------9-----------9-----------9-----------9---9-9-9--10---10-10-10--9---9-9-9--10--10-9--|
G|-7-----------7-----------7-----------7-----------9---9-9-9--10---10-10-10--9---9-9-9--10--10\9--|
D|------0-0-0-------0-0-0-------0-0-0-------0-0-0-------------------------------------------------|
        * * *       * * *       * * *       * * *      * * *        *  *  *      * * *    
 

D|------------------------------------------------------------------------------------------|
A|-----------------------------------------------------------------------------------7------|
F|-9---------11----------12---------11--11-----------------------------------------8---8----|
C|-7----------9----------10----------9---9---8---------8---------8-8-----------8-8-------8--|
G|-7----------9----------10----------9---9---6---6-6-6-6---6-6-6-6-6-6-6-6-6-6--------------|
D|----000000-----000000------000000----------6---6-6-6-6---6-6-6-6-6-6-6-6-6----------------|
      ******     ******      ******              * * *     * * *     * * * * * * *


D|------------------------------------------------------------------------------------------------|
A|------------------------------------------------------------------------------------------------|
F|-9-----------9-----------9-----------9----------11----------12------------11----------12--12-11-|
C|-9-----------9-----------9-----------9-----------9---9-9-9--10---10-10-10--9---9-9-9--10--10-9--|
G|-7-----------7-----------7-----------7-----------9---9-9-9--10---10-10-10--9---9-9-9--10--10\9--|
D|------0-0-0-------0-0-0-------0-0-0-------0-0-0-------------------------------------------------|
        * * *       * * *       * * *       * * *      * * *        *  *  *      * * *  


D|------------------------------------------------------------------------------------------|
A|-----------------------------------------------------------------------------------7------|
F|-9---------11----------12---------11--11-----------------------------------------8---8----|
C|-7----------9----------10----------9---9---8---------8---------8-8-----------8-8-------8--|
G|-7----------9----------10----------9---9---6---6-6-6-6---6-6-6-6-6-6-6-6-6-6--------------|
D|----000000-----000000------000000----------6---6-6-6-6---6-6-6-6-6-6-6-6-6----------------|
      ******     ******      ******              * * *     * * *     * * * * * * *


0:45


L
D|-----------------------------------------------------------------------------------------------|
A|-----------------------------------------------------------------------------------------------|
F|-----------------------------------------------11----------12------------11----------12--12----|
C|-9-999------9-999-------9-999-------9-999-------9---9-9-9--10---10-10-10--9---9-9-9--10--10----|
G|-7-777------7-777-------7-777-------7-777-------9---9-9-9--10---10-10-10--9---9-9-9--10--10----|
D|------0-0-0-------0-0-0-------0-0-0-------0-0-0------------------------------------------------|
        * * *       * * *       * * *       * * *      * * *        *  *  *      * * *  
R
D|------------------------------------------------------------------------------------------------|
A|------------------------------------------------------------------------------------------------|
F|------------------------------------------------11----------12------------11----------12--12----|
C|-------------------------------------------------9---9-9-9--10---10-10-10--9---9-9-9--10--10----|
G|-7-777-7-7-7-7-777-7-7-7-7-777-7-7-7-7-777-7-7-7-9---9-9-9--10---10-10-10--9---9-9-9--10--10----|
D|------------------------------------------------------------------------------------------------|
   * *** * * * * *** * * * * *** * * * * *** * * *     * * *        *  *  *      * * *  



D|------------------------------------------------------------------------------------------------|
A|------------------------------------------------------------------------------------------------|
F|------------------------------------------------------------------------------------------------|
C|------------------------------------------------------------------------------------------------|
G|------------------------------------------------------------------------------------------------|
D|-0-0-0-0-0-0-0-0-0-0-0-0-0-0-0-0-0-0-0-0-0-0-0-0-0-0-0-0-0-0-0-0-0-0-0-0-2-2-2-2-2-2-3-3-3-3-3-3|



D|------------------------------------------------------------------------------------------------|
A|------------------------------------------------------------------------------------------------|
F|------------------------------------------------------------------------------------------------|
C|------------------------------------------------------------------------------------------------|
G|-6-6-6-6-6-6-6-6-6-6-6-6-6-6-6-6-6-6-6-6-6-6-6-6-6-6-6-6-6-6-6-6-6-6-6-6-6-6-6-6-6-6-6-6-6-6-6-6|
D|------------------------------------------------------------------------------------------------|


D|--------------|
A|--------------|
F|--------------|
C|--------------|
G|-3------------|
D|-3------------|





1:01



L
D|-------------------------------------------------------|
A|-------------------------------------------------------|
F|-------------------------------------------------------|
C|-------------------------------------------------------|
G|-------------7-7-7-7-9-9-10-10-10-10-10-10-9-9-9-9-9-9-|
D|-0-0-0-0-0-0-------------------------------------------|

R
D|-------------------------------------------------------|
A|-------------------------------------------------------|
F|-------------------------------------------------------|
C|-------------------------------------------------------|
G|-------------7-7-7-7-9-9-10-10-10-10-10-10-9-9-9-9-9-9-|
D|-0-0-0-0-0-0-------------------------------------------|



L
D|-------------------------------------------------------|
A|-------------------------------------------------------|
F|-------------------------------------------------------|
C|-------------------------10-10-10-10-10-10-9-9-9-9-9-9-|
G|-------------7-7-7-7-9-9-------------------------------|
D|-0-0-0-0-0-0-------------------------------------------|

R
D|---------------------------------------------------------------|
A|---------------------------------------------------------------|
F|---------------------------------------------------------------|
C|---------------------------------------------------------------|
G|---------------------------10-10-10-10-10-10-12-12-12-12-12-12-|
D|-0-0-0-0-0-0-7-7-7-7-10-10-------------------------------------|


L
D|-------------------------------------------------------|
A|-------------------------------------------------------|
F|-------------------------------------------------------|
C|-------------------------------------------------------|
G|-------------7-7-7-7-9-9-10-10-10-10-10-10-9-9-9-9-9-9-|
D|-0-0-0-0-0-0-------------------------------------------|

R
D|-------------------------------------------------------|
A|-------------------------------------------------------|
F|-------------------------------------------------------|
C|-------------------------------------------------------|
G|-------------7-7-7-7-9-9-10-10-10-10-10-10-9-9-9-9-9-9-|
D|-0-0-0-0-0-0-------------------------------------------|


L
D|--------------------------------------------------|
A|--------------------------------------------------|
F|--------------------------------------------------|
C|--------------------------------------------------|
G|--------------------------------------------------|
D|-8-8-8-8-8-8-8-8-8-8-8-8-7-7-7-7-7-7-7-7-7-7-7-7--|

R
D|---------------------------------------------------------------|
A|---------------------------------------------------------------|
F|---------------------------------------------------------------|
C|-12-12-10-10-9-9-10-10-9-9-------------12-12-------------------|
G|---------------------------12-12-10-10-------10-10-9-9-9-9-9-9-|
D|---------------------------------------------------------------|







L
D|-------------------------------------------------------|
A|-------------------------------------------------------|
F|-------------------------------------------------------|
C|-------------------------------------------------------|
G|-------------7-7-7-7-9-9-10-10-10-10-10-10-9-9-9-9-9-9-|
D|-0-0-0-0-0-0-------------------------------------------|

R
D|-------------------------------------------------------|
A|-------------------------------------------------------|
F|-------------------------------------------------------|
C|-------------------------------------------------------|
G|-------------7-7-7-7-9-9-10-10-10-10-10-10-9-9-9-9-9-9-|
D|-0-0-0-0-0-0-------------------------------------------|



L
D|-------------------------------------------------------|
A|-------------------------------------------------------|
F|-------------------------------------------------------|
C|-------------------------10-10-10-10-10-10-9-9-9-9-9-9-|
G|-------------7-7-7-7-9-9-------------------------------|
D|-0-0-0-0-0-0-------------------------------------------|

R
D|---------------------------------------------------------------|
A|---------------------------------------------------------------|
F|---------------------------------------------------------------|
C|---------------------------------------------------------------|
G|---------------------------10-10-10-10-10-10-12-12-12-12-12-12-|
D|-0-0-0-0-0-0-7-7-7-7-10-10-------------------------------------|


L
D|-------------------------------------------------------|
A|-------------------------------------------------------|
F|-------------------------------------------------------|
C|-------------------------------------------------------|
G|-------------7-7-7-7-9-9-10-10-10-10-10-10-9-9-9-9-9-9-|
D|-0-0-0-0-0-0-------------------------------------------|

R
D|-------------------------------------------------------|
A|-------------------------------------------------------|
F|-------------------------------------------------------|
C|-------------------------------------------------------|
G|-------------7-7-7-7-9-9-10-10-10-10-10-10-9-9-9-9-9-9-|
D|-0-0-0-0-0-0-------------------------------------------|




L
D|----------------------------------------------------|
A|-------------------------------12-12-10-10-8-8-12\--|
F|-----------------12-12-9-9-9-9----------------------|
C|-12-12-10-10-9-9------------------------------------|
G|----------------------------------------------------|
D|----------------------------------------------------|

R
D|-----------------------------------------------12\--|
A|-------------------------------12-12-10-10-8-8------|
F|-----------------12-12-9-9-9-9----------------------|
C|-12-12-10-10-9-9------------------------------------|
G|----------------------------------------------------|
D|----------------------------------------------------|







1:17



L
D|-------------------------------------------------------|
A|-------------------------------------------------------|
F|-------------------------------------------------------|
C|-------------------------------------------------------|
G|-------------7-7-7-7-9-9-10-10-10-10-10-10-9-9-9-9-9-9-|
D|-0-0-0-0-0-0-------------------------------------------|

R
D|-------------------------------------------------------|
A|-------------------------------------------------------|
F|-------------------------------------------------------|
C|-------------------------------------------------------|
G|-------------7-7-7-7-9-9-10-10-10-10-10-10-9-9-9-9-9-9-|
D|-0-0-0-0-0-0-------------------------------------------|



L
D|-------------------------------------------------------|
A|-------------------------------------------------------|
F|-------------------------------------------------------|
C|-------------------------10-10-10-10-10-10-9-9-9-9-9-9-|
G|-------------7-7-7-7-9-9-------------------------------|
D|-0-0-0-0-0-0-------------------------------------------|

R
D|---------------------------------------------------------------|
A|---------------------------------------------------------------|
F|---------------------------------------------------------------|
C|---------------------------------------------------------------|
G|---------------------------10-10-10-10-10-10-12-12-12-12-12-12-|
D|-0-0-0-0-0-0-7-7-7-7-10-10-------------------------------------|


L
D|-------------------------------------------------------|
A|-------------------------------------------------------|
F|-------------------------------------------------------|
C|-------------------------------------------------------|
G|-------------7-7-7-7-9-9-10-10-10-10-10-10-9-9-9-9-9-9-|
D|-0-0-0-0-0-0-------------------------------------------|

R
D|-------------------------------------------------------|
A|-------------------------------------------------------|
F|-------------------------------------------------------|
C|-------------------------------------------------------|
G|-------------7-7-7-7-9-9-10-10-10-10-10-10-9-9-9-9-9-9-|
D|-0-0-0-0-0-0-------------------------------------------|


L
D|--------------------------------------------------|
A|--------------------------------------------------|
F|--------------------------------------------------|
C|--------------------------------------------------|
G|--------------------------------------------------|
D|-8-8-8-8-8-8-8-8-8-8-8-8-7-7-7-7-7-7-7-7-7-7-7-7--|

R
D|---------------------------------------------------------------|
A|---------------------------------------------------------------|
F|---------------------------------------------------------------|
C|-12-12-10-10-9-9-10-10-9-9-------------12-12-------------------|
G|---------------------------12-12-10-10-------10-10-9-9-9-9-9-9-|
D|---------------------------------------------------------------|




L
D|-------------------------------------------------------|
A|-------------------------------------------------------|
F|-------------------------------------------------------|
C|-------------------------------------------------------|
G|-------------7-7-7-7-9-9-10-10-10-10-10-10-9-9-9-9-9-9-|
D|-0-0-0-0-0-0-------------------------------------------|

R
D|-------------------------------------------------------|
A|-------------------------------------------------------|
F|-------------------------------------------------------|
C|-------------------------------------------------------|
G|-------------7-7-7-7-9-9-10-10-10-10-10-10-9-9-9-9-9-9-|
D|-0-0-0-0-0-0-------------------------------------------|



L
D|-------------------------------------------------------|
A|-------------------------------------------------------|
F|-------------------------------------------------------|
C|-------------------------10-10-10-10-10-10-9-9-9-9-9-9-|
G|-------------7-7-7-7-9-9-------------------------------|
D|-0-0-0-0-0-0-------------------------------------------|

R
D|---------------------------------------------------------------|
A|---------------------------------------------------------------|
F|---------------------------------------------------------------|
C|---------------------------------------------------------------|
G|---------------------------10-10-10-10-10-10-12-12-12-12-12-12-|
D|-0-0-0-0-0-0-7-7-7-7-10-10-------------------------------------|


L
D|-------------------------------------------------------|
A|-------------------------------------------------------|
F|-------------------------------------------------------|
C|-------------------------------------------------------|
G|-------------7-7-7-7-9-9-10-10-10-10-10-10-9-9-9-9-9-9-|
D|-0-0-0-0-0-0-------------------------------------------|

R
D|-------------------------------------------------------|
A|-------------------------------------------------------|
F|-------------------------------------------------------|
C|-------------------------------------------------------|
G|-------------7-7-7-7-9-9-10-10-10-10-10-10-9-9-9-9-9-9-|
D|-0-0-0-0-0-0-------------------------------------------|

                                                        ___________
L                                                      /           \
D|---------------------------------------------------11-12-11-12-11-12-|
A|---------------------------------------------------------------------|
F|---------------------------------12-12-11-11-9-9---------------------|
C|-----------------12-12-10-10-9-9-------------------------------------|
G|-12-12-10-10-9-9-----------------------------------------------------|
D|---------------------------------------------------------------------|
                                                      _______
R                                                    /       \
D|--------------------------------------------------7-8-7-8-7-8--------|
A|---------------------------------12-12-10-10-8-8---------------------|
F|-----------------12-12-9-9-------------------------------------------|
C|-12-12-10-10-9-9------------9-9--------------------------------------|
G|---------------------------------------------------------------------|
D|---------------------------------------------------------------------|





1:31



L  tr^
D|-12-13~~~~~~~~~~~~~~~~~~~~~~-----------------------------------|
A|---------------------------------------------------------------|
F|---------------------------------------------------------------|
C|---------------------------------------------------------------|
G|---------------------------------------------------------------|
D|---------------------------------------------------------------|

R
D|---------------------------------------------------------------|
A|---------------------------------------------------------------|
F|---------------------------------------------------------------|
C|-7----------------6----------------7----------------6----------|
G|-7----------------6----------------7----------------6----------|
D|-5----------------4----------------5----------------4----------|


L
D|-------------------------------------------------------------------------|
A|----------15----------------------------------15-------17-------15-------|
F|-14-16-17----17-16-14-17-16-14-16-14-13-16-17----17-14----17-14----16-13-|
C|-------------------------------------------------------------------------|
G|-------------------------------------------------------------------------|
D|-------------------------------------------------------------------------|

R
D|-------------------------------------------------------------------------|
A|-------------------------------------------------------------------------|
F|-------------------------------------------------------------------------|
C|-------------------------------------------------------------------------|
G|-7--7--7--7--7--7--7--7--7--7--7--7--6--6--6--6--6--6--6--6--6--6--6--6--|
D|-5--5--5--5--5--5--5--5--5--5--5--5--4--4--4--4--4--4--4--4--4--4--4--4--|




L                                                2 STEP
D|----------------------------__---------------------------------|
A|---------------------------/  \-----------------_____----------|
F|------13--14--14/16--14--13 14-13---------------)   (----------|
C|-15--------------------------------15~~~------15---------14~---|
G|---------------------------------------------------------------|
D|---------------------------------------------------------------|

R
D|------------------------------------------------------------|
A|------------------------------------------------------------|
F|------------------------------------------------------------|
C|------------------------------------------------------------|
G|-3--3--3--3--3--3--3--3--3--3--3--3-3-3-3-3----5-5-5-5-5-5--|
D|-1--1--1--1--1--1--1--1--1--1--1--1-1-1-1-1----3-3-3-3-3-3--|
                                      * * *





1:46




D|------------------------------------------------------------------------------------------------|
A|------------------------------------------------------------------------------------------------|
F|-9-----------9-----------9-----------9----------11----------12------------11----------12--12-11-|
C|-9-----------9-----------9-----------9-----------9---9-9-9--10---10-10-10--9---9-9-9--10--10-9--|
G|-7-----------7-----------7-----------7-----------9---9-9-9--10---10-10-10--9---9-9-9--10--10\9--|
D|------0-0-0-------0-0-0-------0-0-0-------0-0-0-------------------------------------------------|
        * * *       * * *       * * *       * * *      * * *        *  *  *      * * *  


D|------------------------------------------------------------------------------------------|
A|-----------------------------------------------------------------------------------7------|
F|-9---------11----------12---------11--11-----------------------------------------8---8----|
C|-9----------9----------10----------9---9---8---------8---------8-8-----------8-8-------8--|
G|-7----------9----------10----------9---9---6---6-6-6-6---6-6-6-6-6-6-6-6-6-6--------------|
D|----000000-----000000------000000----------6---6-6-6-6---6-6-6-6-6-6-6-6-6----------------|
      ******     ******      ******              * * *     * * *     * * * * * * *


L
D|-----------------------------------------------------------------------------------------------|
A|-----------------------------------------------------------------------------------------------|
F|-----------------------------------------------11----------12------------11----------12--12----|
C|-9-999------9-999-------9-999-------9-999-------9---9-9-9--10---10-10-10--9---9-9-9--10--10----|
G|-7-777------7-777-------7-777-------7-777-------9---9-9-9--10---10-10-10--9---9-9-9--10--10----|
D|------0-0-0-------0-0-0-------0-0-0-------0-0-0------------------------------------------------|
        * * *       * * *       * * *       * * *      * * *        *  *  *      * * *  
R
D|------------------------------------------------------------------------------------------------|
A|------------------------------------------------------------------------------------------------|
F|------------------------------------------------11----------12------------11----------12--12----|
C|-------------------------------------------------9---9-9-9--10---10-10-10--9---9-9-9--10--10----|
G|-7-777-7-7-7-7-777-7-7-7-7-777-7-7-7-7-777-7-7-7-9---9-9-9--10---10-10-10--9---9-9-9--10--10----|
D|------------------------------------------------------------------------------------------------|
   * *** * * * * *** * * * * *** * * * * *** * * *     * * *        *  *  *      * * *  




D|------------------------------------------------------------------------------------------------|
A|------------------------------------------------------------------------------------------------|
F|------------------------------------------------------------------------------------------------|
C|------------------------------------------------------------------------------------------------|
G|------------------------------------------------------------------------------------------------|
D|-0-0-0-0-0-0-0-0-0-0-0-0-0-0-0-0-0-0-0-0-0-0-0-0-0-0-0-0-0-0-0-0-0-0-0-0-2-2-2-2-2-2-3-3-3-3-3-3|



D|------------------------------------------------------------------------------------------------|
A|------------------------------------------------------------------------------------------------|
F|------------------------------------------------------------------------------------------------|
C|------------------------------------------------------------------------------------------------|
G|-6-6-6-6-6-6-6-6-6-6-6-6-6-6-6-6-6-6-6-6-6-6-6-6-6-6-6-6-6-6-6-6-6-6-6-6-6-6-6-6-6-6-6-6-6-6-6-6|
D|------------------------------------------------------------------------------------------------|


D|--------------|
A|--------------|
F|--------------|
C|--------------|
G|-3------2-----|
D|-3------2-----|




2:20



L
D|---------------------------------------------------------------------------------------|
A|---------------------------------------------------------------------------------------|
F|---------------------------------------------------------------------------------------|
C|-9-----------3-----------5---------------------9-----------3-----------6-9--9--5-8--8--|
G|-7---0-0-0-0-1---0-0-0-0-3---0-0-0-0--7-8-7-8--7---0-0-0-0-1---0-0-0-0-4/7--7--3/6--6--|
D|--------------------------------------5/6-5/6------------------------------------------|
       * * * *     * * * *     * * * *               * * * *     * * * * 
R
D|---------------------------------------------------------------------------------------|
A|-8---------------------------------------------8---------------------------------------|
F|-9---------------------------------------------9---------------------------------------|
C|-9---------------------------------------------9---------------------------------------|
G|-7---------------------------------------------7---------------------------------------|
D|---------------------------------------------------------------------------------------|


L
D|----------------------------------------------------------------------------------------|
A|--------------------------------------------------------------------------_-----_-------|
F|-------------------------------------------------------------------------/ \---/ \------|
C|-9-----------3-----------5---------------------9-----------3------------9-8-7-8-7-6-7-6-|
G|-7---0-0-0-0-1---0-0-0-0-3---0-0-0-0--7-8-7-8--7---0-0-0-0-1---0-0-0-0--7\6\5-6\5\4-5\4-|
D|--------------------------------------5/6-5/6-------------------------------------------|
       * * * *     * * * *     * * * *               * * * *     * * * * 
R
D|---------------------------------------------------------------------------------------|
A|-8---------------------------------------------8---------------------------------------|
F|-9---------------------------------------------9---------------------------------------|
C|-9-----------3-----------5---------------------9-----------3------------P--------------|
G|-7---0-0-0-0-1---0-0-0-0-3---0-0-0-0--7-8-7-8--7---0-0-0-0-1---0-0-0-0----S------------|
D|--------------------------------------5/6-5/6------------------------------------------|
       * * * *     * * * *     * * * *               * * * *     * * * * 



L
D|---------------------------------------------------------------------------------------|
A|---------------------------------------------------------------------------------------|
F|---------------------------------------------------------------------------------------|
C|-9-----------3-----------5---------------------9-----------3-----------6-9--9--5-8--8--|
G|-7---0-0-0-0-1---0-0-0-0-3---0-0-0-0--7-8-7-8--7---0-0-0-0-1---0-0-0-0-4/7--7--3/6--6--|
D|--------------------------------------5/6-5/6------------------------------------------|
       * * * *     * * * *     * * * *               * * * *     * * * * 
R
D|---------------------------------------------------------------------------------------|
A|-8---------------------------------------------8---------------------------------------|
F|-9---------------------------------------------9---------------------------------------|
C|-9-----------3-----------5---------------------9-----------3-----------6-9--9--5-8--8--|
G|-7---0-0-0-0-1---0-0-0-0-3---0-0-0-0--7-8-7-8--7---0-0-0-0-1---0-0-0-0-4/7--7--3/6--6--|
D|--------------------------------------5/6-5/6------------------------------------------|
       * * * *     * * * *     * * * *               * * * *     * * * * 


L
D|----------------------------------------------------------------------------------------|
A|--------------------------------------------------------------------------_-----_-------|
F|-------------------------------------------------------------------------/ \---/ \------|
C|-9-----------3-----------5---------------------9-----------3------------9-8-7-8-7-6-7-6-|
G|-7---0-0-0-0-1---0-0-0-0-3---0-0-0-0--7-8-7-8--7---0-0-0-0-1---0-0-0-0--7\6\5-6\5\4-5\4-|
D|--------------------------------------5/6-5/6-------------------------------------------|
       * * * *     * * * *     * * * *               * * * *     * * * * 
R
D|----------------------------------------------------------------------------------------|
A|-8---------------------------------------------8--------------------------_-----_-------|
F|-9---------------------------------------------9-------------------------/ \---/ \------|
C|-9-----------3-----------5---------------------9-----------3------------9-8-7-8-7-6-7-6-|
G|-7---0-0-0-0-1---0-0-0-0-3---0-0-0-0--7-8-7-8--7---0-0-0-0-1---0-0-0-0--7\6\5-6\5\4-5\4-|
D|--------------------------------------5/6-5/6-------------------------------------------|
       * * * *     * * * *     * * * *               * * * *     * * * * 




L
D|---------------------------------------------------------------------------------------|
A|---------------------------------------------------------------------------------------|
F|---------------------------------------------------------------------------------------|
C|-9-----------3-----------5---------------------9-----------3-----------6-9--9--5-8--8--|
G|-7---0-0-0-0-1---0-0-0-0-3---0-0-0-0--7-8-7-8--7---0-0-0-0-1---0-0-0-0-4/7--7--3/6--6--|
D|--------------------------------------5/6-5/6------------------------------------------|
       * * * *     * * * *     * * * *               * * * *     * * * * 
R
D|---------------------------------------------------------------------------------------|
A|-8---------------------------------------------8---------------------------------------|
F|-9---------------------------------------------9---------------------------------------|
C|-9-----------3-----------5---------------------9-----------3-----------6-9--9--5-8--8--|
G|-7---0-0-0-0-1---0-0-0-0-3---0-0-0-0--7-8-7-8--7---0-0-0-0-1---0-0-0-0-4/7--7--3/6--6--|
D|--------------------------------------5/6-5/6------------------------------------------|
       * * * *     * * * *     * * * *               * * * *     * * * * 


L
D|----------------------------------------------------------------------------------------|
A|--------------------------------------------------------------------------_-----_-------|
F|-------------------------------------------------------------------------/ \---/ \------|
C|-9-----------3-----------5---------------------9-----------3------------9-8-7-8-7-6-7-6-|
G|-7---0-0-0-0-1---0-0-0-0-3---0-0-0-0--7-8-7-8--7---0-0-0-0-1---0-0-0-0--7\6\5-6\5\4-5\4-|
D|--------------------------------------5/6-5/6-------------------------------------------|
       * * * *     * * * *     * * * *               * * * *     * * * * 
R
D|----------------------------------------------------------------------------------------|
A|-8---------------------------------------------8--------------------------_-----_-------|
F|-9---------------------------------------------9-------------------------/ \---/ \------|
C|-9-----------3-----------5---------------------9-----------3------------9-8-7-8-7-6-7-6-|
G|-7---0-0-0-0-1---0-0-0-0-3---0-0-0-0--7-8-7-8--7---0-0-0-0-1---0-0-0-0--7\6\5-6\5\4-5\4-|
D|--------------------------------------5/6-5/6-------------------------------------------|
       * * * *     * * * *     * * * *               * * * *     * * * * 





D|-------------------------------------------------------------|
A|-------------------------------------------------------------|
F|-------------------------------------------------------------|
C|-------------------------------------------------------------|
G|-7-7---7-7-7--7-6-6---6-6-6--6-7-7---7-7-7---7-6-6---6-6-6---|
D|-5-5---5-5-5--5-4-4---4-4-4--4-5-5---5-5-5---5-4-4---4-4-4---|


D|----------------------------------------------------------------|
A|----------------------------------------------------------------|
F|----------------------------------------------------------------|
C|-------------------------------------------------6-9--9--5-8--8-|
G|-7-7-7---6-6-6---7-7-7---6-6-6---3-3---3-3-3--3--4/7--7--3/6--6-|
D|-5-5-5---4-4-4---5-5-5---4-4-4---1-1---1-1-1--1-----------------|
   *       *       *       *     



2:55


L
D|---------------------------------------------------------------------------------------|
A|---------------------------------------------------------------------------------------|
F|---------------------------------------------------------------------------------------|
C|-9-----------3-----------5---------------------9-----------3-----------6-9--9--5-8--8--|
G|-7---0-0-0-0-1---0-0-0-0-3---0-0-0-0--7-8-7-8--7---0-0-0-0-1---0-0-0-0-4/7--7--3/6--6--|
D|--------------------------------------5/6-5/6------------------------------------------|
       * * * *     * * * *     * * * *               * * * *     * * * * 
R
D|---------------------------------------------------------------------------------------|
A|-8---------------------------------------------8---------------------------------------|
F|-9---------------------------------------------9---------------------------------------|
C|-9-----------3-----------5---------------------9-----------3-----------6-9--9--5-8--8--|
G|-7---0-0-0-0-1---0-0-0-0-3---0-0-0-0--7-8-7-8--7---0-0-0-0-1---0-0-0-0-4/7--7--3/6--6--|
D|--------------------------------------5/6-5/6------------------------------------------|
       * * * *     * * * *     * * * *               * * * *     * * * * 


L
D|----------------------------------------------------------------------------------------|
A|--------------------------------------------------------------------------_-----_-------|
F|-------------------------------------------------------------------------/ \---/ \------|
C|-9-----------3-----------5---------------------9-----------3------------9-8-7-8-7-6-7-6-|
G|-7---0-0-0-0-1---0-0-0-0-3---0-0-0-0--7-8-7-8--7---0-0-0-0-1---0-0-0-0--7\6\5-6\5\4-5\4-|
D|--------------------------------------5/6-5/6-------------------------------------------|
       * * * *     * * * *     * * * *               * * * *     * * * * 
R
D|----------------------------------------------------------------------------------------|
A|-8---------------------------------------------8--------------------------_-----_-------|
F|-9---------------------------------------------9-------------------------/ \---/ \------|
C|-9-----------3-----------5---------------------9-----------3------------9-8-7-8-7-6-7-6-|
G|-7---0-0-0-0-1---0-0-0-0-3---0-0-0-0--7-8-7-8--7---0-0-0-0-1---0-0-0-0--7\6\5-6\5\4-5\4-|
D|--------------------------------------5/6-5/6-------------------------------------------|
       * * * *     * * * *     * * * *               * * * *     * * * * 



L
D|---------------------------------------------------------------------------------------|
A|---------------------------------------------------------------------------------------|
F|---------------------------------------------------------------------------------------|
C|-9-----------3-----------5---------------------9-----------3-----------6-9--9--5-8--8--|
G|-7---0-0-0-0-1---0-0-0-0-3---0-0-0-0--7-8-7-8--7---0-0-0-0-1---0-0-0-0-4/7--7--3/6--6--|
D|--------------------------------------5/6-5/6------------------------------------------|
       * * * *     * * * *     * * * *               * * * *     * * * * 
R
D|---------------------------------------------------------------------------------------|
A|-8---------------------------------------------8---------------------------------------|
F|-9---------------------------------------------9---------------------------------------|
C|-9-----------3-----------5---------------------9-----------3-----------6-9--9--5-8--8--|
G|-7---0-0-0-0-1---0-0-0-0-3---0-0-0-0--7-8-7-8--7---0-0-0-0-1---0-0-0-0-4/7--7--3/6--6--|
D|--------------------------------------5/6-5/6------------------------------------------|
       * * * *     * * * *     * * * *               * * * *     * * * * 


L
D|-----------------------------------------------------------------------|
A|-----------------------------------------------------------------------|
F|-----------------------------------------------------------------------|
C|-9-----------3-----------5---------------------9-----------3-----------|
G|-7---0-0-0-0-1---0-0-0-0-3---0-0-0-0--7-8-7-8--7---0-0-0-0-1---0-0-0-0-|
D|--------------------------------------5/6-5/6--------------------------|
       * * * *     * * * *     * * * *               * * * *     * * * * 
R
D|-----------------------------------------------------------------------|
A|-8---------------------------------------------8-----------------------|
F|-9---------------------------------------------9-----------------------|
C|-9-----------3-----------5---------------------9-----------3-----------|
G|-7---0-0-0-0-1---0-0-0-0-3---0-0-0-0--7-8-7-8--7---0-0-0-0-1---0-0-0-0-|
D|--------------------------------------5/6-5/6--------------------------|
       * * * *     * * * *     * * * *               * * * *     * * * * 



3:12


L
D|--------------------------------------------------------------------------------------|
A|---___--------------------------------------------------------------------------------|
F|--/   \-------------------------------------------------------------------------------|
C|-9-8-7-8-8-7--9-9-9-9-----------------9-9-9-9-10-10-10-10-9-9-7-7-------------7-7-7-7-|
G|-7\6\5/6-6-5----------7-7-7-7-7-7-7-7-----------------------------10-10-10-10---------|
D|--------------------------------------------------------------------------------------|

R
D|--------------------------------------------------------------------------------------|
A|---___--------------------------------------------------------------------------------|
F|--/   \-------------------------------------------------------------------------------|
C|-9-8-7-8-8-7--------------------------------------------------------------------------|
G|-7\6\5/6-6-5--2--------------------------------5--------------------------------------|
D|--------------0--------------------------------3--------------------------------------|



D|--------------------------------------------------------------------------|
A|--------------------------------------------------------------------------|
F|--------------------------------------------------------------------------|
C|-9-9-9-9-----------------9-9-9-9-10-10-10-10-9-9-7-7-------------7-7-7-7--|
G|---------7-7-7-7-7-7-7-7-----------------------------10-10-10-10----------|
D|--------------------------------------------------------------------------|


D|-------------------------------------------------------------------------------|
A|-------------------------------------------------------------------------------|
F|-------------------------------------------------------------------------------|
C|-9-9-9-9-----------------9-9-9-9-10-10-10-10-9-9-10-10-12-12-12-12-12-12-12-12-|
G|---------7-7-7-7-7-7-7-7-------------------------------------------------------|
D|-------------------------------------------------------------------------------|


D|--------------------------------------------------------------------------|
A|--------------------------------------------------------------------------|
F|--------------------------------------------------------------------------|
C|-9-9-9-9-----------------9-9-9-9-10-10-10-10-9-9-7-7-------------7-7-7-7--|
G|---------7-7-7-7-7-7-7-7-----------------------------10-10-10-10----------|
D|--------------------------------------------------------------------------|



D|------------------------------------------------------------------------------|
A|------------------------------------------------------------------------------|
F|------------------------------------------------------------------------------|
C|-9-9-9-9---------10-10-10-10--------------------------------------------------|
G|---------7-7-7-7------------------------------------10-10-12-12-12-12-9-9-9-9-|
D|-----------------------------8-8-8-8-8-8-8-10-10-10---------------------------|



D|--------------------------------------------------------------------------|
A|--------------------------------------------------------------------------|
F|--------------------------------------------------------------------------|
C|-9-9-9-9-----------------9-9-9-9-10-10-10-10-9-9-7-7-------------7-7-7-7--|
G|---------7-7-7-7-7-7-7-7-----------------------------10-10-10-10----------|
D|--------------------------------------------------------------------------|


D|-------------------------------------------------------------------------------|
A|-------------------------------------------------------------------------------|
F|-------------------------------------------------------------------------------|
C|-9-9-9-9-----------------9-9-9-9-10-10-10-10-9-9-10-10-12-12-12-12-12-12-12-12-|
G|---------7-7-7-7-7-7-7-7-------------------------------------------------------|
D|-------------------------------------------------------------------------------|


D|--------------------------------------------------------------------------|
A|--------------------------------------------------------------------------|
F|--------------------------------------------------------------------------|
C|-9-9-9-9-----------------9-9-9-9-10-10-10-10-9-9-7-7-------------7-7-7-7--|
G|---------7-7-7-7-7-7-7-7-----------------------------10-10-10-10----------|
D|--------------------------------------------------------------------------|



L
D|--------------------------------------------____------------|
A|-------------------------------------------/    \-----------|
F|---------------------------------------10-9-10-9-7----------|
C|-9-9-9-9---------10-10-10-10-----------------------10-9-7---|
G|---------7-7-7-7--------------------------------------------|
D|-----------------------------8-8-8-8------------------------|


D|-------------------------------------------------------------|
A|---------------------------------------------_____-----------|
F|--------------------------------------------/     \----------|
C|-9-9-9-9---------10-10-10-10-----------12-10-12-10-9---------|
G|---------7-7-7-7-------------------------------------12-10-9-|
D|-----------------------------8-8-8-8-------------------------|





3:33



D|--------------------------------------------------------------------------------------|
A|----------0---------------------------------------------0-----------------------------|
F|-5--------0------------------------------------5--------0----------------10-----9-----|
C|-7--------7--------10--------------------------7--------7--------10------10-----9-----|
G|-7--------7--------10--------3--------2--------7--------7--------10-------8-----7-----|
D|-5--------5--------8---------1--------0--------5--------5--------8--------8-----7-----|





3:51

L
D|-----------------------------------------------------------------------------------|
A|-----------------------------------------------------------------------------------|
F|-----------------------------------------------------------------------------------|
C|-10-10-10-10-----------------10-10-10-10-12-12-12-12-10-10-9-9-------------9-9-9-9-|
G|-------------8-8-8-8-8-8-8-8-----------------------------------12-12-12-12---------|
D|-----------------------------------------------------------------------------------|

R
D|--------------------------------------------------------------------------|
A|--------------------------------------------------------------------------|
F|-9-9-9-9-----------------9-9-9-9-10-10-10-10-9-9-7-7-------------7-7-7-7--|
C|---------7-7-7-7-7-7-7-7-----------------------------10-10-10-10----------|
G|--------------------------------------------------------------------------|
D|--------------------------------------------------------------------------|


L
D|-----------------------------------------------------------------------------------------|
A|-----------------------------------------------------------------------------------------|
F|-----------------------------------------------------------------------------------------|
C|-10-10-10-10-----------------10-10-10-10-12-12-12-10-10-10-12-12-14-14-14-14-14-14-14-14-|
G|-------------8-8-8-8-8-8-8-8-------------------------------------------------------------|
D|-----------------------------------------------------------------------------------------|

R
D|------------------------------------------------------------------------------|
A|------------------------------------------------------------------------------|
F|-9-9-9-9-----------------9-9-9-9-10-10-10-9-9-9-10-10-12-12-12-12-12-12-12-12-|
C|---------7-7-7-7-7-7-7-7------------------------------------------------------|
G|------------------------------------------------------------------------------|
D|------------------------------------------------------------------------------|



L
D|--------------------------------------------------------------------------------|
A|--------------------------------------------------------------------------------|
F|--------------------------------------------------------------------------------|
C|-10-10-10-10-----------------10-10-10-10-12-12-12-10-10-9-9-------------9-9-9-9-|
G|-------------8-8-8-8-8-8-8-8--------------------------------12-12-12-12---------|
D|--------------------------------------------------------------------------------|

R
D|--------------------------------------------------------------------------|
A|--------------------------------------------------------------------------|
F|-9-9-9-9-----------------9-9-9-9-10-10-10-9-9-7-7--------------7-7-7-7----|
C|---------7-7-7-7-7-7-7-7--------------------------10-10-10-10-------------|
G|--------------------------------------------------------------------------|
D|--------------------------------------------------------------------------|


L
D|--------------------------------------------------------------------------|
A|--------------------------------------------------------------------------|
F|--------------------------------------------------------------------------|
C|-10-10-10-10-----------------10-10-10-10-12-10-9--------------------------|
G|-------------8-8-8-8-8-8-8-8---------------------12-10-8-12-10-8----------|
D|-----------------------------------------------------------------12-10-8--|

R
D|---------------------------------------------------------------|
A|---------------------------------------------------------------|
F|-9-9-9-9-----------------9-9-9-9-10-9-7------------------------|
C|---------7-7-7-7-7-7-7-7----------------10-9-7-10-9-7----------|
G|------------------------------------------------------10-8-7---|
D|---------------------------------------------------------------|





4:00


D|-------------------------------------------------|
A|-------------------------------------------------|
F|-------------------------------------------------|
C|-------9------------10------------12-------------|
G|-8-8-8----8-8-8-8-8-----8-8-8-8-8----8-8-10-10---|
D|------------------------------------------8--8---|


D|--------------------------------------------------------|
A|--------------------------------------------------------|
F|--------------------------------------------------------|
C|-7-7-7-7-7-7-9-9-9-9-9-9-10-10-10-10-10-10-9-9-9-9-9-9--|
G|-0-0-0-0-0-0-0-0-0-0-0-0--0--0--0--0--0--0-0-0-0-0-0-0--|
D|--------------------------------------------------------|


D|-------------------------------------------------|
A|-------------------------------------------------|
F|-------------------------------------------------|
C|-------9------------10------------12-------------|
G|-8-8-8----8-8-8-8-8-----8-8-8-8-8----8-8-12-10---|
D|-----------------------------------------10--8---|


D|--------------------------------------------------------------------|
A|--------------------------------------------------------------------|
F|--------------------------------------------------------------------|
C|-9-9-9-9-9-9-10-10-10-10-10-10-12-12-12-12-12-12-17-17-17-17-17-17--|
G|-0-0-0-0-0-0--0--0--0--0--0--0--0--0--0--0--0--0--0--0--0--0--0--0--|
D|--------------------------------------------------------------------|


D|-------------------------------------------------|
A|-------------------------------------------------|
F|-------------------------------------------------|
C|-------9------------10------------12-------------|
G|-8-8-8----8-8-8-8-8-----8-8-8-8-8----8-8-10-10---|
D|------------------------------------------8--8---|


D|----------------------------------------------------|
A|----------------------------------------------------|
F|----------------------------------------------------|
C|-7-7-7-7-7-7-9-9-9-9-9-9-10-10-10-9-9-9-7-7-7-5-5-5-|
G|-0-0-0-0-0-0-0-0-0-0-0-0--0--0--0-0-0-0-0-0-0-0-0-0-|
D|----------------------------------------------------|



D|-------------------------------------------------|
A|-------------------------------------------------|
F|-------------------------------------------------|
C|-------9------------10------------12-------------|
G|-8-8-8----8-8-8-8-8-----8-8-8-8-8----8-8-12-10---|
D|-----------------------------------------10--8---|



D|--------------------------------------------------|
A|--------------------------------------------------|
F|--------------------------------------------------|
C|-7-7-7-7-7-7-7-7-7-7-7-7-9-9-9-9-9-9-9-9-9-9-9-9--|
G|-7-7-7-7-7-7-7-7-7-7-7-7-7-7-7-7-7-7-7-7-7-7-7-7--|
D|-5-5-5-5-5-5-5-5-5-5-5-5-5-5-5-5-5-5-5-5-5-5-5-5--|


D|-------------------------------------------------------------------------|
A|-------------------------------------------------------------------------|
F|-------------------------------------------------------------------------|
C|-10-10-10-10-10-10-10-10-10-10-10-10-12-12-12-12-12-12-12-12-12-12-12-12-|
G|--7--7--7--7--7--7--7--7--7--7--7--7-10-10-10-10-10-10-10-10-10-10-10-10-|
D|--5--5--5--5--5--5--5--5--5--5--5--5-10-10-10-10-10-10-10-10-10-10-10-10-|




4:20


D|-------------------------------------------------|
A|-------------------------------------------------|
F|-------------------------------------------------|
C|-------9------------10------------12-------------|
G|-8-8-8----8-8-8-8-8-----8-8-8-8-8----8-8-10-10---|
D|------------------------------------------8--8---|


D|--------------------------------------------------------|
A|--------------------------------------------------------|
F|--------------------------------------------------------|
C|-7-7-7-7-7-7-9-9-9-9-9-9-10-10-10-10-10-10-9-9-9-9-9-9--|
G|-0-0-0-0-0-0-0-0-0-0-0-0--0--0--0--0--0--0-0-0-0-0-0-0--|
D|--------------------------------------------------------|


D|-------------------------------------------------|
A|-------------------------------------------------|
F|-------------------------------------------------|
C|-------9------------10------------12-------------|
G|-8-8-8----8-8-8-8-8-----8-8-8-8-8----8-8-12-10---|
D|-----------------------------------------10--8---|


D|--------------------------------------------------------------------|
A|--------------------------------------------------------------------|
F|--------------------------------------------------------------------|
C|-9-9-9-9-9-9-10-10-10-10-10-10-12-12-12-12-12-12-17-17-17-17-17-17--|
G|-0-0-0-0-0-0--0--0--0--0--0--0--0--0--0--0--0--0--0--0--0--0--0--0--|
D|--------------------------------------------------------------------|


D|-------------------------------------------------|
A|-------------------------------------------------|
F|-------------------------------------------------|
C|-------9------------10------------12-------------|
G|-8-8-8----8-8-8-8-8-----8-8-8-8-8----8-8-10-10---|
D|------------------------------------------8--8---|


D|----------------------------------------------------|
A|----------------------------------------------------|
F|----------------------------------------------------|
C|-7-7-7-7-7-7-9-9-9-9-9-9-10-10-10-9-9-9-7-7-7-5-5-5-|
G|-0-0-0-0-0-0-0-0-0-0-0-0--0--0--0-0-0-0-0-0-0-0-0-0-|
D|----------------------------------------------------|



D|-------------------------------------------------|
A|-------------------------------------------------|
F|-------------------------------------------------|
C|-------9------------10------------12-------------|
G|-8-8-8----8-8-8-8-8-----8-8-8-8-8----8-8-12-10---|
D|-----------------------------------------10--8---|


D|--------------------------------------------------------------------|
A|--------------------------------------------------------------------|
F|--------------------------------------------------------------------|
C|-7--------9-------10--------6--------7--------9-------10-------12---|
G|-7--------7--------7--------7--------7--------7--------7-------10---|
D|-5--------5--------5--------4--------5--------5--------5-------10---|






4:45


D|-----------------------------------------------------------------------------------|
A|-----------------------------------------------------------------------------------|
F|-----------------------------------------------------------------------------------|
C|-7---------7---------9---------9---------10---------10---------6---------6---------|
G|-7-7-7-7-7-7-7-7-7-7-7-7-7-7-7-7-7-7-7-7-8--8-8-8-8-8--8-8-8-8-6-6-6-6-6-6-6-6-6-6-|
D|-5-5-5-5-5-5-5-5-5-5-5-5-5-5-5-5-5-5-5-5-6--6-6-6-6-6--6-6-6-6-4-4-4-4-4-4-4-4-4-4-|
     * * * *   * * * *   * * * *   * * * *    * * * *    * * * *   * * * *   * * * *



D|---------------------------------------------------------------------|
A|---------------------------------------------------------------------|
F|---------------------------------------------------------------------|
C|-7---------7---------9---------9---------10---------10---------6--6--|
G|-7-7-7-7-7-7-7-7-7-7-7-7-7-7-7-7-7-7-7-7-8--8-8-8-8-8--8-8-8-8-6--6--|
D|-5-5-5-5-5-5-5-5-5-5-5-5-5-5-5-5-5-5-5-5-6--6-6-6-6-6--6-6-6-6-4--4--|
     * * * *   * * * *   * * * *   * * * *    * * * *    * * * *   


D|---------------------------------------------------------|
A|---------------------------------------------------------|
F|---------------------------------------------------------|
C|-7------6------9------8------7------6------5------5--5---|
G|-7------6------9------8------7------6------5------5--5---|
D|-5------4------7------6------5------4------3------3--3---|





5:06



D|-------------------------------|
A|-------------------------------|
F|-------------------------------|
C|-7--------7---------7----------|
G|-7--------7---------7----------|
D|-5--------5---------5----------|
     |         |         |

L
D|--------------------------------------------------|
A|--------------------------------------------------|
F|--------------------------------------------------|
C|--------------------------------------------------|
G|--------------------------------------------------|
D|-8-8-8-8-8-8-8-8-8-8-8-8-7-7-7-7-7-7-7-7-7-7-7-7--|

R
D|---------------------------------------------------------------|
A|---------------------------------------------------------------|
F|---------------------------------------------------------------|
C|-12-12-10-10-9-9-10-10-9-9-------------12-12-------------------|
G|---------------------------12-12-10-10-------10-10-9-9-9-9-9-9-|
D|---------------------------------------------------------------|



5:14

L
D|-------------------------------------------------------|
A|-------------------------------------------------------|
F|-------------------------------------------------------|
C|-------------------------------------------------------|
G|-------------7-7-7-7-9-9-10-10-10-10-10-10-9-9-9-9-9-9-|
D|-0-0-0-0-0-0-------------------------------------------|

R
D|-------------------------------------------------------|
A|-------------------------------------------------------|
F|-------------------------------------------------------|
C|-------------------------------------------------------|
G|-------------7-7-7-7-9-9-10-10-10-10-10-10-9-9-9-9-9-9-|
D|-0-0-0-0-0-0-------------------------------------------|



L
D|-------------------------------------------------------|
A|-------------------------------------------------------|
F|-------------------------------------------------------|
C|-------------------------10-10-10-10-10-10-9-9-9-9-9-9-|
G|-------------7-7-7-7-9-9-------------------------------|
D|-0-0-0-0-0-0-------------------------------------------|

R
D|---------------------------------------------------------------|
A|---------------------------------------------------------------|
F|---------------------------------------------------------------|
C|---------------------------------------------------------------|
G|---------------------------10-10-10-10-10-10-12-12-12-12-12-12-|
D|-0-0-0-0-0-0-7-7-7-7-10-10-------------------------------------|


L
D|-------------------------------------------------------|
A|-------------------------------------------------------|
F|-------------------------------------------------------|
C|-------------------------------------------------------|
G|-------------7-7-7-7-9-9-10-10-10-10-10-10-9-9-9-9-9-9-|
D|-0-0-0-0-0-0-------------------------------------------|

R
D|-------------------------------------------------------|
A|-------------------------------------------------------|
F|-------------------------------------------------------|
C|-------------------------------------------------------|
G|-------------7-7-7-7-9-9-10-10-10-10-10-10-9-9-9-9-9-9-|
D|-0-0-0-0-0-0-------------------------------------------|


L
D|--------------------------------------------------|
A|--------------------------------------------------|
F|--------------------------------------------------|
C|--------------------------------------------------|
G|--------------------------------------------------|
D|-8-8-8-8-8-8-8-8-8-8-8-8-7-7-7-7-7-7-7-7-7-7-7-7--|

R
D|---------------------------------------------------------------|
A|---------------------------------------------------------------|
F|---------------------------------------------------------------|
C|-12-12-10-10-9-9-10-10-9-9-------------12-12-------------------|
G|---------------------------12-12-10-10-------10-10-9-9-9-9-9-9-|
D|---------------------------------------------------------------|



L
D|-------------------------------------------------------|
A|-------------------------------------------------------|
F|-------------------------------------------------------|
C|-------------------------------------------------------|
G|-------------7-7-7-7-9-9-10-10-10-10-10-10-9-9-9-9-9-9-|
D|-0-0-0-0-0-0-------------------------------------------|

R
D|-------------------------------------------------------|
A|-------------------------------------------------------|
F|-------------------------------------------------------|
C|-------------------------------------------------------|
G|-------------7-7-7-7-9-9-10-10-10-10-10-10-9-9-9-9-9-9-|
D|-0-0-0-0-0-0-------------------------------------------|



L
D|-------------------------------------------------------|
A|-------------------------------------------------------|
F|-------------------------------------------------------|
C|-------------------------10-10-10-10-10-10-9-9-9-9-9-9-|
G|-------------7-7-7-7-9-9-------------------------------|
D|-0-0-0-0-0-0-------------------------------------------|

R
D|---------------------------------------------------------------|
A|---------------------------------------------------------------|
F|---------------------------------------------------------------|
C|---------------------------------------------------------------|
G|---------------------------10-10-10-10-10-10-12-12-12-12-12-12-|
D|-0-0-0-0-0-0-7-7-7-7-10-10-------------------------------------|


L
D|-------------------------------------------------------|
A|-------------------------------------------------------|
F|-------------------------------------------------------|
C|-------------------------------------------------------|
G|-------------7-7-7-7-9-9-10-10-10-10-10-10-9-9-9-9-9-9-|
D|-0-0-0-0-0-0-------------------------------------------|

R
D|-------------------------------------------------------|
A|-------------------------------------------------------|
F|-------------------------------------------------------|
C|-------------------------------------------------------|
G|-------------7-7-7-7-9-9-10-10-10-10-10-10-9-9-9-9-9-9-|
D|-0-0-0-0-0-0-------------------------------------------|

                                                        ___________
L                                                      /           \
D|---------------------------------------------------11-12-11-12-11-12-|
A|---------------------------------------------------------------------|
F|---------------------------------12-12-11-11-9-9---------------------|
C|-----------------12-12-10-10-9-9-------------------------------------|
G|-12-12-10-10-9-9-----------------------------------------------------|
D|---------------------------------------------------------------------|
                                                      _______
R                                                    /       \
D|--------------------------------------------------7-8-7-8-7-8--------|
A|---------------------------------12-12-10-10-8-8---------------------|
F|-----------------12-12-9-9-------------------------------------------|
C|-12-12-10-10-9-9------------9-9--------------------------------------|
G|---------------------------------------------------------------------|
D|---------------------------------------------------------------------|



5:28


L  tr^
D|-12-13~~~~~~~~~~~~~~~~~~~~~~-----------------------------------|
A|---------------------------------------------------------------|
F|---------------------------------------------------------------|
C|---------------------------------------------------------------|
G|---------------------------------------------------------------|
D|---------------------------------------------------------------|

R
D|---------------------------------------------------------------|
A|---------------------------------------------------------------|
F|---------------------------------------------------------------|
C|-7----------------6----------------7----------------6----------|
G|-7----------------6----------------7----------------6----------|
D|-5----------------4----------------5----------------4----------|



L
D|-------------------------------------------------------------------------|
A|----------15----------------------------------15-------17-------15-------|
F|-14-16-17----17-16-14-17-16-14-16-14-13-16-17----17-14----17-14----16-13-|
C|-------------------------------------------------------------------------|
G|-------------------------------------------------------------------------|
            
Submit corrections


        Hammer Of The Witches lessons Hard to play? Try these video lessons and learn fast Hammer Of The Witches lessons
        
↑ Back to top | Tablatures and chords for acoustic guitar and electric guitar, ukulele, drums are parodies/interpretations of the original songs. You may use it for private study, scholarship, research or language learning purposes only