» » »

Cradle Of Filth - Beyond Eleventh Hour Tabs

Artists:  A B C D E F G H I J K L M N O P Q R S T U V W X Y Z # 

Beyond Eleventh Hour Tabs

(ver. 2) Click to play this song!
Cradle Of Filth
 Rating:
4/5 (4 votes)


 Beyond Eleventh Hour lessons Tabs too difficult? Try these video lessons and learn fast
 
                Beyond eleventh hour Solo
dgcfad  *=palm mute

                                             ___
-------------------___----------------------/   \--------|
------------------/   \----*-9-[9]/12-11-9-11-12-11-9-11-|
---------------8-8-9-8-6-*-8-----------------------------|
----6-5---9-8------------6-------------------------------|
---------------------------------------------------------|
-4-------------------------------------------------------|
                                                     __
                                             __     /  \
--------------------------------------__----/  \---9-11-12-|
----------------__-------------__----/  \--9-11-12---------|
---------__----/  \----___----/  \--8-9-11-----------------|
--__----/  \--8-9-11--/   \--8-9-11------------------------|
-/  \--7-9-11--------8-10-11-------------------------------|
7-9-11-----------------------------------------------------|

                                                __
-11--------------------------]-----------------/  \------|
---15-9-/12-11-9-12-11-12-7~~]-12-0-0-11-0-7-0-8-10-8-0--|
-----------------------------]---------------------------|
-----------------------------]---------------------------|
-----------------------------]---------------------------|
-----------------------------]---------------------------|
                                 __
--------------------------------/  \------------|
-7-0-5-0-7^8-7-0-0-3-0-5-0-2-0-2-3-2------------|
-------------------------------------4-3--------|
------------------------------------------------|
------------------------------------------------|

---------------------------------------------|
-7\5-5-5/8-8-8\7-7-7/11-11-11/12-12----------|
---------------------------------------------|
---------------------------------------------|
---------------------------------------------|
---------------------------------------------|
    ___
   /   \
-15-19-15-------14-----------14---------------|
----------17-------14-15-17-----12-14-15------|
-------------16--------------------------11---|\
----------------------------------------------|
----------------------------------------------|
----------------------------------------------|
            
Submit corrections



        Beyond Eleventh Hour lessons Hard to play? Try these video lessons and learn fast Beyond Eleventh Hour lessons
        
↑ Back to top | Tablatures and chords for acoustic guitar and electric guitar, ukulele, drums are parodies/interpretations of the original songs. You may use it for private study, scholarship, research or language learning purposes only