» » »

Counting Crows - Angels Of The Silences Tabs

Artists:  A B C D E F G H I J K L M N O P Q R S T U V W X Y Z # 

Angels Of The Silences Tabs

(ver. 3) Click to play this song!
Counting Crows
 Rating:
4/5 (4 votes)

 Angels Of The Silences lessons Tabs too difficult? Try these video lessons and learn fast
 
                
Any questions or comments are welcome!



Angels of the Silences


Verse

  G#sus2  Asus2    E5     Bsus4

e|--0-------0-------0-------0------|
B|--0-------0-------0-------0------|
G|--x-------x-------9-------x------|
D|--6-------7-------9-------9------|
A|--6-------7-------7-------9------|
E|--4-------5-------0-------7------|



Chorus

   E5           G#sus2  Bsus4  F#7SUS4 ASUS2

e|--0-------------0-------0-------0------0-------|
B|--0-------------0-------0-------0------0-------|
G|--9-------------x-------X-------X------X-------|
D|--9-------------6-------9-------4------7-------|
A|--7-------------6-------9-------4------7-------|
E|--0-------------4-------7-------2------5-------|


Solo

e|--0--0--0--0--0--0-----0--0--0--0---------|
B|--0--0--0--0--0--0-----0--0--0--0------0--|
G|--7--6--7--6--7--9-----7--6--4--2--1h2----|
D|------------------------------------------|
A|--5--4--5--4--5--7-----5--4--2--0---------|
E|------------------------------------------|


e|--0--0--0--0--0--0----0---0------0---0---0---0--|
B|--0--0--0--0--0--0----0---0------0---0---0---0--|
G|--7--6--7--6--7--9---/13--11--13/14--13--11--9--|
D|------------------------------------------------|
A|--5--4--5--4--5--7---/11--9---11/12--11--9---7--|
E|------------------------------------------------|


e|-------------------------------------------------------------------|
B|-------------------------------------------------------------------|
G|--8~~--8~~--8~~--8~~-8/9~~-9~~-9~~-9~~-8/9-11-9-8------------------|
D|--------------------------------------------------9~~-9~~-9~~-9~~--|
A|-------------------------------------------------------------------|
E|-------------------------------------------------------------------|


e|--0-0--0-0-0-0-0-0--0-0-0-0------------12-0-----0-----0-----0------|
B|--9h10-9-9-9-9-9h10-9-9-9-9-10b12-10-9----10b12-10b12-10b12-10b12--|
G|-------9-9-9-9------9-9-9-9----------------------------------------|
D|-------------------------------------------------------------------|
A|-------------------------------------------------------------------|
E|-------------------------------------------------------------------|


e|--------------------------------------------------------------------|
B|--9-------------10-------------12----------------9------------------|
G|----9~-9~-9~-9~----9~-9~-9~-9~----9~-9~-9~-9~-11---11~-11~-11~-11~--|
D|--------------------------------------------------------------------|
A|--------------------------------------------------------------------|
E|--------------------------------------------------------------------|


e|--0---0---0--0--0---0--0--0--0--0--0--0--0--0--0--0--|
B|--12--10--9--7--10--9--7--5--9--7--5--4--7--5--4--2--|
G|-----------------------------------------------------|
D|-----------------------------------------------------|
A|-----------------------------------------------------|
E|-----------------------------------------------------|







Lyrics

Well I guess you left me with some feathers in my hand
Did it make it any easier to leave me where I stand?
I guess there might not be too many who would stand beside you now
Where’d you come from? where am I going?
Why’d you leave me ’till I’m only good for...
Waiting for you
All my sins...
I said that I would pay for them if I could come back to you
All my innocence is wasted on the dead and dreaming

Every night these silhouettes appear above my head
Little angels of the silences that climb into my bed and whisper
Every time I fall asleep, every time I dream
’did you come? would you lie?
Why’d you leave us ’till we’re only good for...
Waiting for you’
All my sins...
I said that I would pay for them if I could come back to you
All my innocence is wasted on the dead and dreaming

I dream of michelangelo when I’m lying in my bed
Little angels hang above my head and read me like an open book
Suck my blood break my nerve offer me their arms
Well, I will not be an enemy of anything
I’ll only stand here

Waiting for you
All my sins...
I said that I would pay for them if I could come back to you
All my innocence is wasted on the dead and dreaming

I’m gone
            
Submit corrections


        Angels Of The Silences lessons Hard to play? Try these video lessons and learn fast Angels Of The Silences lessons
        
↑ Back to top | Tablatures and chords for acoustic guitar and electric guitar, ukulele, drums are parodies/interpretations of the original songs. You may use it for private study, scholarship, research or language learning purposes only