» » »

Counting Crows - Mr Jones Tabs

Artists:  A B C D E F G H I J K L M N O P Q R S T U V W X Y Z # 

Mr Jones Tabs

(ver. 1) Click to play this song!
Counting Crows
 Rating:
4/5 (4 votes)

 Mr Jones lessons Tabs too difficult? Try these video lessons and learn fast
 
                Awesome live intro to Counting Crows - Mr. Jones, from the version on the live album By The Time We Got to Woodstock.

Tempo ~ Q = 70

  S S E S S S S E E. S S S   E E S S S S E E. E S   E E S S S S E E. S S S
|-----------------1--------|----------------------|---0-----------1--1-1-1--|
|-----1-----------1--1-----|-3-3---3------------3-|---1---1-------1--1-1-1--|
|---2-----2-------2------2-|-2-2-------2---0--0-0-|---2-------2---2--2-2-2--|
|-2-----2---2-0---3----3---|-0-0-0---0-----0--0---|-2-2-2---------3----3----|
|---------------3-3--------|-0-0-----------2------|---------0---3-3----3----|
|--------------------------|-------------3-3------|-------------------------|


  E Q +S  E. S E E S
|---3-(3)------------|----|
|---3-(3)-3------3---|----|
|---0-(0)-0----0-0-0-|----|
|-0-0-(0)-0----0-0-0-|----|
|-2-2-(2)-2--2-------|----|
|-3-3-(3)----3-------|----|


Duration Legend
---------------
W - whole; H - half; Q - quarter; E - 8th; S - 16th; T - 32nd; X - 64th; a - acciaccatura
+ - note tied to previous; . - note dotted; .. - note double dotted
Uncapitalized letters represent notes that are staccato (1/2 duration)
Irregular groupings are notated above the duration line
Duration letters will always appear directly above the note/fret number it represents the
duration for.  Duration letters with no fret number below them represent rests.  Multi-
bar rests are notated in the form Wxn, where n is the number of bars to rest for.  Low
melody durations appear below the staff


***************************************************************************************
***************************************************************************************
            
Submit corrections


        Mr Jones lessons Hard to play? Try these video lessons and learn fast Mr Jones lessons
        
↑ Back to top | Tablatures and chords for acoustic guitar and electric guitar, ukulele, drums are parodies/interpretations of the original songs. You may use it for private study, scholarship, research or language learning purposes only