Home » C » Cornell Chris »

Cornell Chris - Sunshower Tabs

Artists:  A B C D E F G H I J K L M N O P Q R S T U V W X Y Z # 

Sunshower Tabs

(ver. 3) Click to play this song!
Cornell Chris
Updated 03/03/00

Sunshower (solo)
Chris Cornell
Great Expectations soundtrack (1997)

This is my attempt at tabbing the solo which ends Sunshower.  There's 
already an excellent tab out for most of the song by David Antonio, but I 
hadn't been able to find a tab for the solo, so I figured I'd do my best to 
tab it out.

Anyway, the timing isn't exact here, but listen to the CD and you'll get it.


||-------------------------------------------------------------------|
||-------------------------------------------------------------------|
||--7--7-7/9--9-9-9/11-11--11~~--11--11-11b12r11~~--12--12-12b14r12~~|
||-------------------------------------------------------------------|
||-------------------------------------------------------------------|
||-------------------------------------------------------------------|


||-------------------------------------------------------------------|
||-------------------------------------------------------------------|
||---12--12-12b14r12~~--12b14r12~~--11--11-11b12r11~~--11b12r11~~----|
||-------------------------------------------------------------------|
||-------------------------------------------------------------------|
||-------------------------------------------------------------------|



||-------------------------------------------------------------------|
||-------------------------------------------------------------------|
||-9--9-9b10r9~~--9b10r9~~---7---7b8r7~~--(7)-7-----7b8r7~~---5-----*|
||----------------------------------------------8--8----------------*|
||-------------------------------------------------------------------|
||-------------------------------------------------------------------|

Play the above four times, and end on this:



||-------------------------------------------------------------------|
||-------------------------------------------------------------------|
||--7--7-7/9--9-9-9/11-11--11~~--11--11-11b12r11~~--12--12-12b14r12~~|
||-------------------------------------------------------------------|
||-------------------------------------------------------------------|
||-------------------------------------------------------------------|


||-------------------------------------------------------------------|
||-------------------------------------------------------------------|
||---12--12-12b14r12~~--12b14r12~~--11--11-11b12r11~~--11b12r11~~----|
||-------------------------------------------------------------------|
||-------------------------------------------------------------------|
||-------------------------------------------------------------------|



||-------------------------------------------------------------------|
||-------------------------------------------------------------------|
||-9--9-9b10r9~~--9b10r9~~---7---7b8r7~~--(7)-7-----7b8r7~~----------|
||----------------------------------------------8--8-----------------|
||-------------------------------------------------------------------|
||-------------------------------------------------------------------|

						(very softly)
||----------------------------||--14----0-----0-----0-----0-----0---|
||----------------------------||--15----15----15----14----12----10--|
||-----7b8r7--------7\5~~-----||--14----14----0-----0-----0-----0---|
||---8-------8----------------||--0-----0-----0-----0-----0-----0---|
||----------------------------||------------------------------------|
||----------------------------||------------------------------------|
            
Submit corrections

↑ Back to top | Tablatures and chords for acoustic guitar and electric guitar, ukulele, drums are parodies/interpretations of the original songs. You may use it for private study, scholarship, research or language learning purposes only