» » »

Corey Smith - I'm Not Gonna Cry Tabs

Artists:  A B C D E F G H I J K L M N O P Q R S T U V W X Y Z # 

I'm Not Gonna Cry Tabs

(ver. 1) Click to play this song!
Corey Smith
 Rating:
4/5 (4 votes)

 I'm Not Gonna Cry lessons Tabs too difficult? Try these video lessons and learn fast
 
                (Intro)
Just the beginning of the song, might finish it all some time. words correlate with the 
so you can get an idea of when to play and sing.
little intro is |-| |4| |2| |-| |-|
                |-| |5| |4| |2| |-|
                |1| |6| |4| |2| |1|
                |2| |6| |4| |2| |2|
                |2| |4| |2| |-| |2|
                |-| |4| |2| |-| |-|

|----------------------2-----------4----------------------------|
|--------------0-------4----4------5---5-------------2---2------|
|----------1-----1-----4------4----6-----6-----------2-----2----|
|----------2--2-----2--4--4-----4--6--6-----6--------2--2----2--|
|----------2-----------2-----------4----------------------------|
|----------------------2-----------4----------------------------|
   Sunday shoes,cap an gown, the whole town gathered around

|-----------------------2-------------------4----------------------------|
|----------0------------4-----4-------------5-----5-----------2---2------|
|------1-----1----------4-------4-----------6-------6---------2-----2----|
|------2--2-----2-------4---4-----4---------6---6------6------2--2----2--|
|------2----------------2-------------------4----------------------------|
|-----------------------2-------------------4----------------------------|
Waited 18 years now its all comming down to this

|-----------------------------------2-------------|
|----------------------0------------4-----4-------|
|--------------1----------1---------4-------4-----|
|--------------2----2--------2------4---4-----4---|
|--------------2--------------------2-------------|
|-----------------------------------2-------------|
I scanned the crowd and it fills my soul

|-------4-----------------------------------------|
|-------5------5------------2-----2---------------|
|-------6--------6----------2--------2------------|
|-------6---6-------6-------2---2-------2---------|
|-------4-----------------------------------------|
|-------4-----------------------------------------|
My best friends all here in rows

|------------------------2-----------------4--------------2-------------|
|--------0---------------4------4----------5------5-------4-----4-------|
|--1--------1------------4---------4-------6--------6-----4--------4----|
|--2---2-------2---------4---4--------4----6---6------6---4---4-------4-|
|--2---------------------2-----------------4--------------2-------------|
|------------------------2-----------------4--------------2-------------|
No Turning back, now its time to walk that line

|--------------------2-----------------|
|----2------2--------4------4----------|
|----2---------2-----4---------4-------|
|----2---2--------2--4---4--------4----|
|--------------------2-----------------|
|--------------------2-----------------|
This Tassel is gonna turn

|-------------------2------4-----------------|
|-------------------4------5------5----------|
|------------1------4------6---------6-------|
|------------2------4------6---6--------6----|
|------------2------2------4-----------------|
|-------------------2------4-----------------|
But when the moment passes by
|---------2----------------2-----------------|
|---------4-----4----------4-----4-----------|
|---------4--------4-------4--------4--------|
|---------4---4-------4----4---4-------4-----|
|---------2----------------2-----------------|
|---------2----------------2-----------------|
Well just walk away


|---------------------------------------------------------|
|-----------2-----2----------2-----2----------------------|
|-----------2--------2-------2--------2-------------------|
|-----------2---2------2-----2---2------2-----------------|
|---------------------------------------------------------|
|---------------------------------------------------------|
Then slowly grow apart

       Chorus chords below are lines up with words they are played with before or after. 
last line of chorus changes up down below.

                       |-|       |2|  |-|
                       |-|       |4|  |2|
                       |1|       |4|  |2|
                       |2|       |4|  |2|
                       |2|       |2|  |-|
                       |-|       |2|  |-|
           But Im not gonna cry, no
       Not one sad or happy tear
           Ive waited my whole life
Now Im gonna fly right outta here

Last line of chorus.

|-4----------------------2-----------------------------4-------------------|
|-5----------------------3---2-------------------------5---5-------2--2----|
|-6----------------------2---2--------------------1----6-----6-----2----2--|
|-6--------------------------2--------------------2----6-6-----6---2-2----2|
|-4-----------------------------------------------2----4-------------------|
|-4----------------------------------------------------4-------------------|
  Its a bittersweet goodbye,     but im not gonna cry

Thats all for now.
            
Submit corrections


        I'm Not Gonna Cry lessons Hard to play? Try these video lessons and learn fast I'm Not Gonna Cry lessons
        
↑ Back to top | Tablatures and chords for acoustic guitar and electric guitar, ukulele, drums are parodies/interpretations of the original songs. You may use it for private study, scholarship, research or language learning purposes only