» » »

Corey Smith - Feet Wet Tabs

Artists:  A B C D E F G H I J K L M N O P Q R S T U V W X Y Z # 

Feet Wet Tabs

(ver. 1) Click to play this song!
Corey Smith
 Rating:
3.3/5 (21 vote)

 Feet Wet  lessons Tabs too difficult? Try these video lessons and learn fast
 
                Tuning: D A D F# B E

   
    Acoustic Intro
e |---------------------------------------------------------------------------|
B |---------------------------------------------------------------------------|
F#|----------1p0-------3-3-5p3-----------1p0-------0-0---------------1p0------|
D |------0-0-----0-3/4---------4\2--0--0-----0-3/4-----2p0-2p0--0--0-----0-3/4|
A |------0--------------------------0---------------------------0-------------|
D |--9\--0--------------------------0---------------------------0-------------|


e |---------------------------------------------------------------------------|
B |---------------------------------------------------------------------------|
F#|-3-3-5p3--8-5p0-0-3p0-0-----3-3--------------------------------------------|
D |------------------------3/4-----4\2--0-------------------------------------|
A |-------------------------------------0-------------------------------------|
D |-------------------------------------0-------------------------------------|

    Electric Intro
e |---------------------------------------------------------------------------|
B |---------------------------------------------------------------------------|
F#|-0--------------0-------8-5p0-0-3p0-----3-3------0-------------------------|
D |-0--------------0-------------------3/4-----4\2--0-------------------------|
A |-0--------------0----------------------------------------------------------|
D |-0------------0-0----------------------------------------------------------|

    Acoustic Verse (P.M)
e |---------------------------------------------------------------------------|
B |---------------------------------------------------------------------------|
F#|--0--0--0-/3--3--3--3--3--3\1p0--0--0--0--1--0--0--0--0-0------------------|
D |--0--0--0-/4--4--4--4--4--4\2p0--0--0--0--2--0--0--0--0-0----X4------------|
A |--0--0--0-----0--0--0--0--0------0--0--0--------0--0--0-0------------------|
D |--0--0--0------------------------0--0--0--------0--0--0-0------------------|

    Electric Verse
e |---------------------------------------------------------------------------|
B |---------------------------------------------------------------------------|
F#|--0------------------------------------------------------------------------|
D |--0------X8----------------------------------------------------------------|
A |--0------------------------------------------------------------------------|
D |--0------------------------------------------------------------------------|

    Acoustic Prechorus (P.M)
e |---------------------------------------------------------------------------|
B |---------------------------------------------------------------------------|
F#|---------------------------------------------------------------------------|
D |---2--2--2-2-2-2-2-2-2--4--4--4-4-4-4-4-4-4--5--5--5-5-5-5-5-5-5---7-------|
A |---2--2--2-2-2-2-2-2-2--4--4--4-4-4-4-4-4-4--5--5--5-5-5-5-5-5-5---7-------|
D |---2--2--2-2-2-2-2-2-2--4--4--4-4-4-4-4-4-4--5--5--5-5-5-5-5-5-5---7-------|

   Acoustic Chorus
e |---------------------------------------------------------------------------|
B |---------------------------------------------------------------------------|
F#|----------------------------------/3-3--3-3-3-1p0--------------------------|
D |---5---5--5-5---7--7--7-7--0--0-0-/4-4--4-4-4-2p0-0---X2-------------------|
A |---5---5--5-5---7--7--7-7--0--0-0-----------------0------------------------|
D |---5---5--5-5---7--7--7-7--0--0-0-----------------0------------------------|


e |---------------------------------------------------------------------------|
B |---------------------------------------------------------------------------|
F#|---------------------------------------------------------------------------|
D |-5--5--5-5--7--7--7-7--9--7--5--5--5-5-5-5-5-5-5-5-0-0-0-0-0-0-7-7-7-7-7-7-|
A |-5--5--5-5--7--7--7-7--9--7--5--5--5-5-5-5-5-5-5-5-0-0-0-0-0-0-7-7-7-7-7-7-|
D |-5--5--5-5--7--7--7-7--9--7--5--5--5-5-5-5-5-5-5-5-0-0-0-0-0-0-7-7-7-7-7-7-|

*Electric just follows acoustic chords* 

   Acoustic Bridge (P.M)
e |---------------------------------------------------------------------------|
B |---------------------------------------------------------------------------|
F#|---------------------------------------------------------------------------|
D |--9-9-9-9-9-9-9-9-9-9-9-9-9-9-9-9-7-7-7-7-7-7-7-7--------------------------|
A |--9-9-9-9-9-9-9-9-9-9-9-9-9-9-9-9-7-7-7-7-7-7-7-7----X2--------------------|
D |--9-9-9-9-9-9-9-9-9-9-9-9-9-9-9-9-7-7-7-7-7-7-7-7--------------------------|

  
    Acoustic Ending of last Chorus
e |-----------------------------------------------------------------------------------|
B |-----------------------------------------------------------------------------------|
F#|-----------------------------------------------------------------------------------|
D |---5-5-5-5-5-5-5-5-0-0-0-0-0-0-0-0-7-7-7-7-7-7-7-7-9-9-9-9-9-9-9-9-7-7-7-7-7-7-7-7-|
A |---5-5-5-5-5-5-5-5-0-0-0-0-0-0-0-0-7-7-7-7-7-7-7-7-9-9-9-9-9-9-9-9-7-7-7-7-7-7-7-7-|
D |---5-5-5-5-5-5-5-5-0-0-0-0-0-0-0-0-7-7-7-7-7-7-7-7-9-9-9-9-9-9-9-9-7-7-7-7-7-7-7-7-|


            
Submit corrections


        Feet Wet  lessons Hard to play? Try these video lessons and learn fast Feet Wet  lessons
        
↑ Back to top | Tablatures and chords for acoustic guitar and electric guitar, ukulele, drums are parodies/interpretations of the original songs. You may use it for private study, scholarship, research or language learning purposes only