» » »

Cooper Temple Clause - Film Maker Bass

Artists:  A B C D E F G H I J K L M N O P Q R S T U V W X Y Z # 

Film Maker Bass

(ver. 2) Click to play this song!
Cooper Temple Clause
 Rating:
4/5 (4 votes)
                Artist = The Cooper Temple Clause
Song = Film-Maker
Album = See This Through And leave


This is a bangin tune, not too hard. Just play it fast as hell. Great band, shame they split up. 

Come in after 8 bars of guitar and drums

G|---------|
D|-4-------|
A|---4-0---|
E|---------|

VERSE 

"This movie would have killed us ..."

G|------------------------------------------------------------------|
D|-----------4---------------4---------------4---------------4------|
A|-------------4-0-------------4-0-------------4-0-------------4-0--|
E|-2-2-2-2-2-------2-2-2-2-2-------2-2-2-2-2-------2-2-2-2-2--------|

G|------------------------------------------------------------------|
D|-----------5---------------5---------------4---------------4------|
A|-------------5-0-------------5-0-------------4-0-------------4-0--|
E|-3-3-3-3-3-------3-3-3-3-3-------2-2-2-2-2-------2-2-2-2-2--------|



CHORUS

"Dont think cuz you cant't see me that I'm not watchin"

G|-------------------------------------------------------------------------|
D|-------------------------------------------------------------------------|
A|-------------------------------------------------------------------------|
E|-5-5-5-5-5-5-5-5-5-5-5-5-5-5-5-5-3-3-6-3-3-6-3-3-6-3-3-6-3-3-6-3---------|



Listen to song to work out the order it's fairly straightforward. Play fast as hell and enjoy.
            
Submit corrections

↑ Back to top | Tablatures and chords for acoustic guitar and electric guitar, ukulele, drums are parodies/interpretations of the original songs. You may use it for private study, scholarship, research or language learning purposes only