» » »

Conor Oberst And The Mystic Valley Band - Moab Tabs

Artists:  A B C D E F G H I J K L M N O P Q R S T U V W X Y Z # 

Moab Tabs

(ver. 2) Click to play this song!
Conor Oberst And The Mystic Valley Band
 Rating:
3.7/5 (6 votes)

 Moab lessons Tabs too difficult? Try these video lessons and learn fast
 
                (Intro)
----------------------------------------------------------------------------
                             Moab - Conor Oberst
----------------------------------------------------------------------------


Tuning: Standard

I noticed there isn't a tab for this yet.

It's not exact, but it sounds good
Hopefully someone can continue on it, and do the whole song.

This is my first tab (yay me). 



   Q.     Q.     S. S  Q   Q   Q   Q    E.  E. S.S. Q.    Q   Q
e|(0)----(0)----(0)(0)(1)-(1)-(1)-------1---1--1-0--0-----0---0------------|
B|-0------0------0--0--1---1---1--------3---3--3-0--1-----1---1------------|
G|-0------0------0--0--2---2---2--------2---2--2(0)-2-----2---2------------|
D|-0------0------0--0--3---3---3-------(0)-(0)(0)---2-----2---2------------|
A|-2------2-----------------------------------------0-----0---0------------|
E|-------------------------------------------------------------------------|
   
   Em7                 Fmaj7            Dm          Am

   Q.     Q.     S. S  Q   Q   Q   Q    E.  E. S.S. Q.       
e|(0)----(0)----(0)(0)(1)-(1)-(1)-------1---1--1-0--7----------------------|
B|-0------0------0--0--1---1---1--------3---3--3-0--7----------------------|
G|-0------0------0--0--2---2---2--------2---2--2(0)-9b10-------------------|
D|-0------0------0--0--3---3---3-------(0)-(0)(0)--------------------------|
A|-2------2----------------------------------------------------------------|
E|-------------------------------------------------------------------------|
   
you can play an B minor instead of the xxx977




| /  slide up
| \  slide down
| h  hammer-on
| p  pull-off
| ~  vibrato
| +  harmonic
| x  Mute note
| b  bend
============================================================================
            
Submit corrections


        Moab lessons Hard to play? Try these video lessons and learn fast Moab lessons
        
↑ Back to top | Tablatures and chords for acoustic guitar and electric guitar, ukulele, drums are parodies/interpretations of the original songs. You may use it for private study, scholarship, research or language learning purposes only