» » »

Conor Oberst And The Mystic Valley Band - Lenders In The Temple Tabs

Artists:  A B C D E F G H I J K L M N O P Q R S T U V W X Y Z # 

Lenders In The Temple Tabs

(ver. 3) Click to play this song!
Conor Oberst And The Mystic Valley Band
 Rating:
4/5 (4 votes)

 Lenders In The Temple lessons Tabs too difficult? Try these video lessons and learn fast
 
                Lenders in the temple.
2008.

--------
CAPO ON 4 FRET.

i think this is enough.

enjoy it.


Intro
e|--0--0-----2---------0--------|
B|--3--2-3---3-3-------2--------|
G|--4--3-4---2-4-------3--------|
D|--4--4-5-4-0-5-4-0---4--------|
A|--2----------------2-4--------|
E|------------------------------|

Verse
     F#7
      |
e|--0-0---2-0-0---0-0-0-2-0-0---0-----|
B|--3-2-3-3-2-3---3-2-3-3-2-3---3-----|
G|--4-3-4-2-3-4---4-3-4-2-3-4---4-----|
D|--4-4-5-0-4-5-4-4-4-5-0-4-5-4-5-----|
A|--2-------------2-------------5-----|
E|------------------------------------|

Chorus

e|--0-3-0-2-0-2-2-0-0---------|
B|--2-3-2-3-2-3-3-2-0---------|
G|--3-0-2-0-2-0-2-2-0---------|
D|--4-0-2-0-2-0-0-2-2---------|
A|--4-2-0-2-0-2---0-2---------|
E|----3---3---3-----0---------|
                        
        
Submit corrections


        Lenders In The Temple lessons Hard to play? Try these video lessons and learn fast Lenders In The Temple lessons
        
↑ Back to top | Tablatures and chords for acoustic guitar and electric guitar, ukulele, drums are parodies/interpretations of the original songs. You may use it for private study, scholarship, research or language learning purposes only