» » »

Coldplay - Trouble Tabs

Artists:  A B C D E F G H I J K L M N O P Q R S T U V W X Y Z # 

Trouble Tabs

(ver. 12) Click to play this song!
Coldplay
 Rating:
4.3/5 (25 votes)


 Trouble lessons Tabs too difficult? Try these video lessons and learn fast
 
                                    Intro
  Q=70
                     G             Em7             Bm
 4/4
          Gtr I
  H.      S S S S    E S S S S S S E S S S S S S   H    E S S S S S S
e|---------4-5-4-0-||-------4-5-4-0-------4-5-4-0-|------------7-5-4-0-|
B|-----------------||-0-------------0-------------|------3-------------|
G|-----------------||-0---0---------0---0---------|-4----4---4---------|
D|-----------------||-0-0-----------2-2-----------|-4------4-----------|
A|-----------------||-2-------------2-------------|-2------------------|
E|-----------------||-----------------------------|--------------------|


   G             Em7             Bm
   E S S S S S S E S S S S S S   H    E S S S S S S
e|-------4-5-4-0-------4-5-4-0-|------4-----4-5-4-0-||
B|-0-------------0-------------|------3---0---------||
G|-0---0---------0---0---------|-4----4-------------||
D|-0-0-----------2-2-----------|-4------4-----------||
A|-2-------------2-------------|-2------------------||
E|-----------------------------|--------------------||
|
 | Gtr II
 | W                             W
e|-----------------------------|--------------------||
B|-----------------------------|--------------------||
G|-----------------------------|--------------------||
D|-----------------------------|--------------------||
A|-----------------------------|--------------------||
E|-----------------------------|--------------------||


   G               Em
   E S S  S  S S S E S S  S  S S S
e|--------4--5-4-0--------4--5-4-0-|
B|-0---------------0---------------|
G|-0---0-----------0---0-----------|
D|-0-0-------------2-2-------------|
A|-2---------------2---------------|
E|---------------------------------|
|
 | E S S +E    E   E S S +E    E
e|-----0-(0)-----------0-(0)-------|
B|-------------0---------------0---|
G|---0---------------0-------------|
D|-5---------------2---------------|
A|---------------------------------|
E|---------------------------------|


   Bm
   H               E   S   S S   S S   S
e|---------------------------7---5-4---0-|
B|-----------------3---------------------|
G|-4---------------4-------4-------------|
D|-4-------------------4-----------------|
A|-2-------------------------------------|
E|---------------------------------------|
|
 | E   E   E   E   E   E     E     E
e|---------------------------------------|
B|---------------------------------------|
G|---------------------------------------|
D|-4b5r4b5r4b5r4b5r4b5r4b5r==4b5r==4b5---|
A|---------------------------------------|
E|---------------------------------------|


   G               Em7               Bm
   E S S  S  S S S E S S  S  S S S   H    E S S S S S S
e|--------4--5-4-0--------4--5-4-0-|------4-----4-5-4-0-||
B|-0---------------0---------------|------3---0---------||
G|-0---0-----------0---0-----------|-4----4-------------||
D|-0-0-------------2-2-------------|-4------4-----------||
A|-2---------------2---------------|-2------------------||
E|---------------------------------|--------------------||
|
 | E S S +E    E   E S S +E    E     W
e|-----0-(0)-----------0-(0)-------|--------------------||
B|-------------0---------------0---|--------------------||
G|---0---------------0-------------|--------------------||
D|-5---------------2---------------|-4------------------||
A|---------------------------------|--------------------||
E|---------------------------------|--------------------||


  Verse 1
   G    Em7    Bm7        F    Am
   H    H      W          H    H
e|-----------|-7--------|------7----|
B|-0----0----|-7--------|-6----5----|
G|-0----0----|-7--------|-5----5----|
D|-0----2----|----------|-7---------|
A|-----------|----------|-8----0----|
E|-3----0----|-7--------|-----------|


   G          Em7    Bm7        F    Am
   Q  +S  S E H      W          H    H
e|----------0------|-7--------|------7----|
B|-0--(0)-----0----|-7--------|-6----5----|
G|-0--(0)-0---0----|-7--------|-5----5----|
D|-0--(0)-----2----|----------|-7---------|
A|-----------------|----------|-8----0----|
E|-3--(3)-----0----|-7--------|-----------|


   G                 G               Em7
                     Gtr I
   H.      S S S S   E S S  S  S S S E S S  S  S S S
e|-0-------4-5-4-0-|--------4--5-4-0--------4--5-4-0-|
B|-0---------------|-0---------------0---------------|
G|-0---------------|-0---0-----------0---0-----------|
D|-0---------------|-0-0-------------2-2-------------|
A|-2---------------|-2---------------2---------------|
E|-3---------------|---------------------------------|
|
 | Gtr II
 | W                 E S S +E    E   E S S +E    E
e|-----------------|-----0-(0)-----------0-(0)-------|
B|-----------------|-------------0---------------0---|
G|-----------------|---0---------------0-------------|
D|-----------------|-5---------------2---------------|
A|-----------------|---------------------------------|
E|-----------------|---------------------------------|


   Bm
   H                E    S   S S   S S   S
e|-----------------------------7---5-4---0---|
B|------------------3------------------------|
G|-4----------------4--------4---------------|
D|-4---------------------4-------------------|
A|-2-----------------------------------------|
E|-------------------------------------------|
|
 | E   E   E   E    E    E     E     E
e|-------------------------------------------|
B|-------------------------------------------|
G|-------------------------------------------|
D|-4b5r4b5r4b5r4b5r=4b5r=4b5r==4b5r==4b5-----|
A|-------------------------------------------|
E|-------------------------------------------|


                                                          Verse
   G               Em7               Bm                    G         Em9
                                                           Gtr III
   E S S  S  S S S E S S  S  S S S   H    E S S S S S S    E E S E S E E E E
e|--------4--5-4-0--------4--5-4-0-|------4-----4-5-4-0-||---0---0-------4---|
B|-0---------------0---------------|------3---0---------||-0-0---0-0-0-0-0-0-|
G|-0---0-----------0---0-----------|-4----4-------------||-0-0---0-0-0-0-0-0-|
D|-0-0-------------2-2-------------|-4------4-----------||-0---0-0-0-0-0-0-0-|
A|-2---------------2---------------|-2------------------||-2---2-----2-------|
E|---------------------------------|--------------------||-3---3-----0-------|
|
 | E S S +E    E   E S S +E    E     W                     W
e|-----0-(0)-----------0-(0)-------|--------------------||-------------------|
B|-------------0---------------0---|--------------------||-------------------|
G|---0---------------0-------------|--------------------||-------------------|
D|-5---------------2---------------|-4------------------||-------------------|
A|---------------------------------|--------------------||-------------------|
E|---------------------------------|--------------------||-------------------|


   BmVII                        F6        Amadd11
                                T
   Q  E S S +S  S E +S  S S S   E E E S S E E E S S
e|----0---0-(0)---0-(0)-0-----|-0---0---0-0---0---0-|
B|----7---7-(7)---7-(7)-7-7---|-1-1-1-1-1-1-1-1-1-0-|
G|----7-7-7-(7)-7-7-(7)-7-7---|-2-2-2-2-2-2-2-2-2-0-|
D|-0--0-0-0-(0)-0-0-(0)-----0-|-3-3-3-3-3-2-2-2-2-0-|
A|----------------------------|-3-3---3---0---------|
E|-7----7-------7-------------|-1-------------------|


   G         Em9       BmVII                        F6        Amadd11
                                                    T
   E E S E S E E E E   Q  E S S +S  S E +S  S S S   E E E S S E E E S S
e|---0---0-------4---|----0---0-(0)---0-(0)-0-----|-0---0---0-0---0---0--|
B|-0-0---0-0-0-0-0-0-|----7---7-(7)---7-(7)-7-7---|-1-1-1-1-1-1-1-1-1-0--|
G|-0-0---0-0-0-0-0-0-|----7-7-7-(7)-7-7-(7)-7-7---|-2-2-2-2-2-2-2-2-2-0--|
D|-0---0-0-0-0-0-0-0-|-0--0-0-0-(0)-0-0-(0)-----0-|-3-3-3-3-3-2-2-2-2-0--|
A|-2---2-----2-------|----------------------------|-3-3---3---0----------|
E|-3---3-----0-------|-7----7-------7-------------|-1--------------------|


                               Chorus
  G                             Aadd11
                                Gtr III
  W                              E E E  S S +S  S E   +S S S S
                                 | | |  | |  |  | |    | | | |
                                 / / /  / /  /  / /    / / / /

                                 Gtr II
   E E E S S +S  S E +S S S S     E E E.   S +S  S S S  S S S S
e|-0---0---0-(0)-0-0-(0)0-0-0-||--------------------------------|
B|-0---0---0-(0)-0-0-(0)0-0-0-||------2----2-(2)-----2--2-------|
G|-0-0-0-0-0-(0)-0-0-(0)0-0-0-||-----------------2--------2---2-|
D|-0-0-0-0-0-(0)-0-0-(0)0-0-0-||----2--------------2--------2---|
A|-2-2-2-2---------2-(2)------||--0-----------------------------|
E|-3-3-3-3---------3-(3)------||--------------------------------|
|
 | Gtr IV
 | H          Q       Q           H           Q         Q
e|-------------------12S======||=14--------------------14S======|
B|-------------------12S======||=14--------------------14S======|
G|-------------------12S======||=14-----------------------------|
D|----------------------------||--------------------------------|
A|----------------------------||--------------------------------|
E|----------------------------||--------------------------------|


  Em7
   E E E   S S +S  S E   +S  S S S
   | | |   | |  |  | |    |  | | |
   / / /   / /  /  / /    /  / / /

    Q   S S S S +S  S S S +S  S S S
e|------------0-(0)-----0-(0)-------|
B|--------0---------0---------0---0-|
G|------0---0---------0---------0---|
D|--2-------------------------------|
A|--2-------------------------------|
E|--0-------------------------------|
|
 |  H            Q         Q
e|-12---------------------12/-------|
B|-12---------------------12/-------|
G|------------------------12/-------|
D|----------------------------------|
A|----------------------------------|
E|----------------------------------|


  Aadd11                            Em7
   E E E   S S +S  S E   +S S S S    E E E   S S +S  S E   +S S S S
   | | |   | |  |  | |    | | | |    | | |   | |  |  | |    | | | |
   / / /   / /  /  / /    / / / /    / / /   / /  /  / /    / / / /

    Q   S S S S +S  S S S  S S S S    Q   S S S S +S  S S S +S S S S
e|---------------------------------|------------0-(0)-----0-(0)------|
B|------------2-(2)-----2--2-------|--------0---------0--------0---0-|
G|--------2---------2--------2---2-|------0---0---------0--------0---|
D|------2---2---------2--------2---|--2------------------------------|
A|--0------------------------------|--2------------------------------|
E|---------------------------------|--0------------------------------|
|
 |  H            Q         Q          H            Q         Q
e|-14---------------------14S======|=12---------------------12S======|
B|-14---------------------14S======|=12---------------------12S======|
G|-14------------------------------|------------------------12S======|
D|---------------------------------|---------------------------------|
A|---------------------------------|---------------------------------|
E|---------------------------------|---------------------------------|


  Aadd11
   E E E   S S +S  S E   +S  S S S
   | | |   | |  |  | |    |  | | |
   / / /   / /  /  / /    /  / / /

    Q   S S S S +S  S S S  S  S S S
e|------------------------------------|
B|------------2-(2)-----2--2----------|
G|--------2---------2---------2---2---|
D|------2---2---------2---------2-----|
A|--0---------------------------------|
E|------------------------------------|
|
 |  H            Q         Q
e|-14---------------------14\---------|
B|-14---------------------14\---------|
G|-14---------------------------------|
D|------------------------------------|
A|------------------------------------|
E|------------------------------------|


  Em7
   E E E   S S +S  S E   +S S S S
   | | |   | |  |  | |    | | | |
   / / /   / /  /  / /    / / / /

                 >
    Q   S S S S +S  S S S +S S S S
e|------------0-(0)-----0-(0)------|
B|--------0---------0--------0---0-|
G|------0---0---------0--------0---|
D|---------------------------------|
A|---------------------------------|
E|--0------------------------------|
|
 |  H            Q         Q
e|-12---------------------12S======|
B|-12---------------------12S======|
G|------------------------12S======|
D|---------------------------------|
A|---------------------------------|
E|---------------------------------|


  Aadd11                       Em7(type 2)
   E E E S S +S S E +S S S S   W
   | | | | |  | | |  | | | |   |
   / / / / /  / / /  / / / /   /

    >
    W                           W
e|----------------------------|-0--------------|
B|--2-------------------------|-0--------------|
G|--2-------------------------|-0--------------|
D|--2-------------------------|-0--------------|
A|--0-------------------------|-2--------------|
E|----------------------------|-0--------------|
|
 |                                     Gtr I
 |  W                             H.   S S S S
e|-14-------------------------|--------4-5-4-0-|
B|-14-------------------------|----------------|
G|-14-------------------------|----------------|
D|----------------------------|----------------|
A|----------------------------|----------------|
E|----------------------------|----------------|


  G               Em7
  Gtr III
  E E    E    E   E E    E    E
  | |    |    |   | |    |    |
  / /    /    /   / /    /    /

   Gtr I
   E S S  S  S S S E S S  S  S S S
e|--------4--5-4-0--------4--5-4-0-|
B|-0---------------0---------------|
G|-0---0-----------0---0-----------|
D|-0-0-------------2-2-------------|
A|-2---------------2---------------|
E|---------------------------------|
|
 | Gtr II
 | E S S +E    E   E S S +E    E
e|-----0-(0)-----------0-(0)-------|
B|-------------0---------------0---|
G|---0---------------0-------------|
D|-5---------------2---------------|
A|---------------------------------|
E|---------------------------------|


  Bm
  Q       E   S   S +S   S E     +S   S S   S
  |       |   |   |  |   | |      |   | |   |
  /       /   /   /  /   / /      /   / /   /

   H                  E     S   S  S   S S   S
e|---------------------------------7---5-4---0-|
B|--------------------3------------------------|
G|-4------------------4---------4--------------|
D|-4------------------------4------------------|
A|-2-------------------------------------------|
E|---------------------------------------------|
|
 | E   E   E   E      E     E      E     E
e|---------------------------------------------|
B|---------------------------------------------|
G|---------------------------------------------|
D|-4b5r4b5r4b5r4b5r===4b5r==4b5r===4b5r==4b5---|
A|---------------------------------------------|
E|---------------------------------------------|


                                                         Verse
  G               Em7               Bm                    G         Em9
  E E    E    S S E E    E    S S   W                     W
  | |    |    | | | |    |    | |   |
  / /    /    / / / /    /    / /   /

                                                           Gtr III
   E S S  S  S S S E S S  S  S S S   H    E S S S S S S    E E S E S E E E E
e|--------4--5-4-0--------4--5-4-0-|------4-----4-5-4-0-||---0---0-------4---|
B|-0---------------0---------------|------3---0---------||-0-0---0-0-0-0-0-0-|
G|-0---0-----------0---0-----------|-4----4-------------||-0-0---0-0-0-0-0-0-|
D|-0-0-------------2-2-------------|-4------4-----------||-0---0-0-0-0-0-0-0-|
A|-2---------------2---------------|-2------------------||-2---2-----2-------|
E|---------------------------------|--------------------||-3---3-----0-------|
|
 | E S S +E    E   E S S +E    E     W                     W
e|-----0-(0)-----------0-(0)-------|--------------------||-------------------|
B|-------------0---------------0---|--------------------||-------------------|
G|---0---------------0-------------|--------------------||-------------------|
D|-5---------------2---------------|-4------------------||-------------------|
A|---------------------------------|--------------------||-------------------|
E|---------------------------------|--------------------||-------------------|


   BmVII                       F6        Amadd11
                               T
   Q   E S S +S S E +S S S S   E E E S S E E E S S
e|-----0---0-(0)--0-(0)0-----|-0---0---0-0---0---0-|
B|-----7---7-(7)--7-(7)7-7---|-1-1-1-1-1-1-1-1-1-0-|
G|-----7-7-7-(7)7-7-(7)7-7---|-2-2-2-2-2-2-2-2-2-0-|
D|-0---0-0-0-(0)0-0-(0)----0-|-3-3-3-3-3-2-2-2-2-0-|
A|---------------------------|-3-3---3---0---------|
E|-7-----7------7------------|-1-------------------|
|
 | Gtr IV
 | Q   Q      Q      Q         W
e|---------------------------|---------------------|
B|---------------------------|---------------------|
G|----11S=====9S=====7S======|=2-------------------|
D|---------------------------|---------------------|
A|---------------------------|---------------------|
E|---------------------------|---------------------|


   G         Em9       BmVII                         F6        Amadd11
                                                     T
   E E S E S E E E E   Q   E S S +S  S E +S  S S S   E E E S S E  E  E S S
e|---0---0-------4---|-----0---0-(0)---0-(0)-0-----|-0---0---0-0-----0---0-|
B|-0-0---0-0-0-0-0-0-|-----7---7-(7)---7-(7)-7-7---|-1-1-1-1-1-1--1--1-1-0-|
G|-0-0---0-0-0-0-0-0-|-----7-7-7-(7)-7-7-(7)-7-7---|-2-2-2-2-2-2--2--2-2-0-|
D|-0---0-0-0-0-0-0-0-|-0---0-0-0-(0)-0-0-(0)-----0-|-3-3-3-3-3-2--2--2-2-0-|
A|-2---2-----2-------|-----------------------------|-3-3---3---0-----------|
E|-3---3-----0-------|-7-----7-------7-------------|-1---------------------|
|
 | H         H         W                                       W
e|-0---------0-------|-0---------------------------|-----------------------|
B|-0---------0-------|-3---------------------------|-----------------------|
G|-0---------0-------|-4---------------------------|-----------------------|
D|-0---------0-------|-4---------------------------|-----------------------|
A|-2---------2-------|-2---------------------------|-----------------------|
E|-3---------0-------|-----------------------------|-----------------------|
|
 |                     Gtr V
 |     W               Q   Q   Q     Q               H       Q    Q
e|-------------------|-----------------------------|-----------------------|
B|-------------------|-----------------------------|-----------------------|
G|-------------------|----11S==9S====7S============|=2-----------14/-------|
D|-------------------|-----------------------------|-----------------------|
A|-------------------|-----------------------------|-----------------------|
E|-------------------|-----------------------------|-----------------------|


                                Chorus
  G                              Aadd11
                                 Gtr III
   W                              E E E  S S +S  S E   +S S S S
                                  | | |  | |  |  | |    | | | |
                                  / / /  / /  /  / /    / / / /

                                  Gtr II
    E E E S S +S  S E +S S S S     E E E.   S +S  S S S  S S S S
e|--0---0---0-(0)-0-0-(0)0-0-0-||--------------------------------|
B|--0---0---0-(0)-0-0-(0)0-0-0-||------2----2-(2)-----2--2-------|
G|--0-0-0-0-0-(0)-0-0-(0)0-0-0-||-----------------2--------2---2-|
D|--0-0-0-0-0-(0)-0-0-(0)0-0-0-||----2--------------2--------2---|
A|--2-2-2-2---------2-(2)------||--0-----------------------------|
E|--3-3-3-3---------3-(3)------||--------------------------------|
|
 |  H          Q       Q           H           Q         Q
e|--------------------12S======||=14--------------------14S======|
B|--------------------12S======||=14--------------------14S======|
G|-16-----------------12S======||=14-----------------------------|
D|-----------------------------||--------------------------------|
A|-----------------------------||--------------------------------|
E|-----------------------------||--------------------------------|


  Em7
   E E E   S S +S  S E   +S  S S S
   | | |   | |  |  | |    |  | | |
   / / /   / /  /  / /    /  / / /

    Q   S S S S +S  S S S +S  S S S
e|------------0-(0)-----0-(0)-------|
B|--------0---------0---------0---0-|
G|------0---0---------0---------0---|
D|--2-------------------------------|
A|--2-------------------------------|
E|--0-------------------------------|
|
 |  H            Q         Q
e|-12---------------------12/-------|
B|-12---------------------12/-------|
G|------------------------12/-------|
D|----------------------------------|
A|----------------------------------|
E|----------------------------------|


  Aadd11                            Em7
   E E E   S S +S  S E   +S S S S    E E E   S S +S  S E   +S S S S
   | | |   | |  |  | |    | | | |    | | |   | |  |  | |    | | | |
   / / /   / /  /  / /    / / / /    / / /   / /  /  / /    / / / /

    Q   S S S S +S  S S S  S S S S    Q   S S S S +S  S S S +S S S S
e|---------------------------------|------------0-(0)-----0-(0)------|
B|------------2-(2)-----2--2-------|--------0---------0--------0---0-|
G|--------2---------2--------2---2-|------0---0---------0--------0---|
D|------2---2---------2--------2---|--2------------------------------|
A|--0------------------------------|--2------------------------------|
E|---------------------------------|--0------------------------------|
|
 |  H            Q         Q          H            Q         Q
e|-14---------------------14S======|=12---------------------12S======|
B|-14---------------------14S======|=12---------------------12S======|
G|-14------------------------------|------------------------12S======|
D|---------------------------------|---------------------------------|
A|---------------------------------|---------------------------------|
E|---------------------------------|---------------------------------|


  Aadd11
   E E E   S S +S  S E   +S  S S S
   | | |   | |  |  | |    |  | | |
   / / /   / /  /  / /    /  / / /

    Q   S S S S +S  S S S  S  S S S
e|------------------------------------|
B|------------2-(2)-----2--2----------|
G|--------2---------2---------2---2---|
D|------2---2---------2---------2-----|
A|--0---------------------------------|
E|------------------------------------|
|
 |  H            Q         Q
e|-14---------------------14\---------|
B|-14---------------------14\---------|
G|-14---------------------------------|
D|------------------------------------|
A|------------------------------------|
E|------------------------------------|


  Em7                               Aadd11                       Em7(type 2)
   E E E   S S +S  S E   +S S S S    E E E S S +S S E +S S S S   W
   | | |   | |  |  | |    | | | |    | | | | |  | | |  | | | |   |
   / / /   / /  /  / /    / / / /    / / / / /  / / /  / / / /   /

                 >                    >
    Q   S S S S +S  S S S +S S S S    W                           W
e|------------0-(0)-----0-(0)------|----------------------------|-0-------|
B|--------0---------0--------0---0-|--2-------------------------|-0-------|
G|------0---0---------0--------0---|--2-------------------------|-0-------|
D|---------------------------------|--2-------------------------|-0-------|
A|---------------------------------|--0-------------------------|-2-------|
E|--0------------------------------|----------------------------|-0-------|
|
 |  H            Q         Q          W                              W
e|-12---------------------12S======|=14-------------------------|---------|
B|-12---------------------12S======|=14-------------------------|---------|
G|------------------------12S======|=14-------------------------|---------|
D|---------------------------------|----------------------------|---------|
A|---------------------------------|----------------------------|---------|
E|---------------------------------|----------------------------|---------|


    G           Em9         BmVII
    Gtr III
      E E E S S E E E S S    E E E S S +S S E +S S S S
      | | | | | | | | | |    | | | | |  | | |  | | | |
      / / / / / / / / / /    / / / / /  / / /  / / / /

     Gtr IV
       ~~~~~~~~~~~~~~~~~~~~~~~~~~~~~~~~~~~~~~~~~~~~~~~~~~
       W                      W
e||--^12-------------------|-^7-------------------------|
B||o-^12-------------------|-^7-------------------------|
G||--^12-------------------|-^7-------------------------|
D||--^12-------------------|-^7-------------------------|
A||o-^12-------------------|-^7-------------------------|
E||--^12-------------------|-^7-------------------------|


                         1.                             2.
  G           Em9         BmVII                          Bm
    E E E S S E E E S S    E E E S S +S S E +S S S S     W
    | | | | | | | | | |    | | | | |  | | |  | | | |     |
    / / / / / / / / / /    / / / / /  / / /  / / / /     /

                                                          >
  ~~~~~~~~~~~~~~~~~~~~~~~~~~~~
     W                      W                             H     H
e|-^12-------------------|-^7--------------------------||-7----(7)\----||
B|-^12-------------------|-^7-------------------------o||-7----(7)\----||
G|-^12-------------------|-^7--------------------------||-7----(7)\----||
D|-^12-------------------|-^7--------------------------||-7----(7)\----||
A|-^12-------------------|-^7-------------------------o||-7----(7)\----||
E|-^12-------------------|-^7--------------------------||-7----(7)\----||


  Bridge
   Em   F#m    GIII F#m    Em   F#m    GIII F#m
   Gtr I
   H    H      H    H      H    H      H    H
e|-----------|-----------|-----------|-----------|
B|-0----2----|-3----2----|-0----2----|-3----2----|
G|-0----2----|-4----2----|-0----2----|-4----2----|
D|-2----4----|-5----4----|-2----4----|-5----4----|
A|-----------|-----------|-----------|-----------|
E|-0----2----|-3----2----|-0----2----|-3----2----|


   Em   F#m    GIII F#m    Em
   H    H      H    H      H    H      Q  Q  Q  Q
e|-----------|-----------|-----------|--------------||
B|-0----2----|-3----2----|-0---------|--------------||
G|-0----2----|-4----2----|-0---------|--------------||
D|-2----4----|-5----4----|-2----2----|-2--2--2--2---||
A|-----------|-----------|-----------|--------------||
E|-0----2----|-3----2----|-0---------|--------------||


   Outro
    G         Em9       BmVII
    Gtr III
      E E E E E E E E    E E E E E E E S S
      | | | | | | | |    | | | | | | | | |
      / / / / / / / /    / / / / / / / / /

     Gtr IV
       ~~~~~~~~~~~~~~~~~~~~~~~~~~~~~~~~~~~~~~
       W                  W
e||--^12---------------|-^7-----------------|
B||o-^12---------------|-^7-----------------|
G||--^12---------------|-^7-----------------|
D||--^12---------------|-^7-----------------|
A||o-------------------|--------------------|
E||--------------------|--------------------|


                     1.                     2.
  G           Em9     BmVII                  Bm
    E E E E E E E E    E E E E E E E S S     W
    | | | | | | | |    | | | | | | | | |     |
    / / / / / / / /    / / / / / / / / /     /

                                              >
  ~~~~~~~~~~~~~~~~~~~~~~~~
     W                  W                     H     H
e|-^12---------------|-^7------------------||-7----(7)\----*|
B|-^12---------------|-^7-----------------o||-7----(7)\----*|
G|-^12---------------|-^7------------------||-7----(7)\----*|
D|-^12---------------|-^7------------------||-7----(7)\----*|
A|-------------------|--------------------o||--------------*|
E|-------------------|---------------------||--------------*|
            
Submit corrections



        Trouble lessons Hard to play? Try these video lessons and learn fast Trouble lessons
        
↑ Back to top | Tablatures and chords for acoustic guitar and electric guitar, ukulele, drums are parodies/interpretations of the original songs. You may use it for private study, scholarship, research or language learning purposes only