» » »

Coldplay - I Ran Away Tabs

Artists:  A B C D E F G H I J K L M N O P Q R S T U V W X Y Z # 

I Ran Away Tabs

(ver. 2) Click to play this song!
Coldplay
 Rating:
4.3/5 (21 vote)

 I Ran Away lessons Tabs too difficult? Try these video lessons and learn fast
 
                [Chorus]
e|---------------------------------------------------------------------------|
B|---9--9--9/12--12\11--11\10--10--9--9--------------------------------------|
G|---9--9--9/13--13\11--11-11--11--9--9--------------------------------------|
D|---------------------------------------------------------------------------|
A|---------------------------------------------------------------------------|
E|---------------------------------------------------------------------------|

e|---------------------------------------------------------------------------|
B|---9--9--9/12--12\11--11\10--10--9--9--------------------------------------|
G|---9--9--9/13--13\11--11-11--11--9--9--------9-----------------------------|
D|---------------------------------------9/11-----11\9-----------------------|
A|---------------------------------------------------------------------------|
E|---------------------------------------------------------------------------|

e|---------------------------------------------------------------------------|
B|---9--9--9/12--12\11--11\10--10--9--9--9\7--7--7\5--5--5/7--7/9--9\5-------|
G|---9--9--9/13--13\11--11-11--11--9--9--9\7--7--7\6--6--6/7--7/9--9\6-------|
D|---------------------------------------------------------------------------|
A|---------------------------------------------------------------------------|
E|---------------------------------------------------------------------------|

            
Submit corrections


        I Ran Away lessons Hard to play? Try these video lessons and learn fast I Ran Away lessons
        
↑ Back to top | Tablatures and chords for acoustic guitar and electric guitar, ukulele, drums are parodies/interpretations of the original songs. You may use it for private study, scholarship, research or language learning purposes only