Home » C » Coldplay »

Coldplay - Hypnotised Bass

Artists:  A B C D E F G H I J K L M N O P Q R S T U V W X Y Z # 

Hypnotised Bass

(ver. 1) Click to play this song!
Coldplay
[Intro] + [Verse]

Rest

[Chorus]

G|----Rest--------|----------------|----------------|----------------|
D|----------------|----------------|----------------|----------------|
A|----------------|----------------|----------------|----------------|
E|----------------|----------------|----------------|----------------|

                          02.12
G|----------------|----------------|----------------|----------------|
D|----------------|----------------|----------------|----------------|
A|----------------|--------5-------|0-------1---1-0-|----------------|
E|----------------|----------------|----------------|1---1--3--5-----|

[Verse]

G|----------------|----------------|----------------|----------------|
D|----------------|----------------|----------------|----------------|
A|----------------|----------------|----------------|----------------|
E|1---------------|----------------|----------------|----------------|

G|----------------|2-------7-------|2-------3-------|--------2-------|
D|3---------------|----------------|----------------|3---------------|
A|----------------|----------------|----------------|----------------|
E|----------------|----------------|----------------|----------------|

G|----------------|----------------|----------------|----------------|
D|----------------|----------------|----------------|----------------|
A|--------------2-|3----------3----|5---------------|1-----------1-1-|
E|3-----------3---|--------3-----3-|--------5-------|----------------|

G|----------------|----------------|----------------|----------------|
D|----------------|----------------|----------------|----------------|
A|--------------2-|3----------3----|5-------------//|1---1-1-----1-1-| (Not sure 4th bar)
E|3-----------3---|--------3-----3-|----------------|----------------|

[Chorus]

G|----------------|----------------|----------------|----------------|
D|----------------|----------------|----------------|----------------|
A|----------------|--------5-------|0-------1---1-0-|----------------|
E|1--------------\|5---------------|----------------|1---1--3--5-----|

                          
G|----------------|----------------|----------------|----------------|
D|----------------|----------------|----------------|----------------|
A|----------------|--------5-------|0-------1---1-0-|----------------|
E|1--------------\|5---------------|----------------|1---1--3--5-----|

[Solo]

G|----------------|----------------|----------------|----------------|
D|----------------|----------------|----------------|----------------|
A|----------------|--------5---5-5-|0-------1---1-0-|----------------|
E|1--------------\|5------------5--|----------------|1---1--3--5-----|

                          
G|----------------|----------------|----------------|----------------|
D|----------------|----------------|----------------|----------------|
A|----------------|--------5---5-5-|0-------1---1-0-|----------------|
E|1--------------\|5------------5--|----------------|1---1--3--5-----|

G|----------------|----------------|----------------|----------------|
D|----------------|----------------|----------------|----------------|
A|--------------2-|3----------3----|5-------5-5---//|1---1-1-----1-1-| (Not sure about last 2 bar)
E|3-----------3---|--------3-----3-|---------5------|----------------|

G|----------------|----------------|----------------|----------------|
D|----------------|----------------|----------------|----------------|
A|--------------2-|3----------3----|5---------------|1-----------1-1-|
E|3-----------3---|--------3-----3-|--------5-------|----------------|

[Chorus]

G|----------------|----------------|----------------|----------------|
D|----------------|----------------|----------------|----------------|
A|----------------|--------5-----5-|0-------1---1-0-|----------------|
E|1---------------|5------------5--|----------------|1---1--3--5-----|

                          
G|----------------|----------------|----------------|----------------|
D|----------------|----------------|----------------|----------------|
A|----------------|--------5-----5-|0-------1---1-0-|----------------|
E|1---------------|5------------5--|----------------|1---1--3--5-----|

G|----------------|
D|----------------|
A|----------------|
E|1---------------|            
Submit corrections

↑ Back to top | Tablatures and chords for acoustic guitar and electric guitar, ukulele, drums are parodies/interpretations of the original songs. You may use it for private study, scholarship, research or language learning purposes only