» » »

Coldplay - Hypnotised Tabs

Artists:  A B C D E F G H I J K L M N O P Q R S T U V W X Y Z # 

Hypnotised Tabs

(ver. 1) Click to play this song!
Coldplay
 Rating:
4.3/5 (16 votes)

 Hypnotised  lessons Tabs too difficult? Try these video lessons and learn fast
 
                [INTRO a x4]
0.00 - 0.16
e|-----------------|-----------------|
B|-----------------|-----------------|
G|-------0-------0-|-------0-------0-|
D|---0h2-----0h2---|---0h2-----0h2---|
A|-3-------3-------|-3-------3-------|
E|-----------------|-----------------|


[INTRO b x2]
0.17 - 0.49
e|-----------------|-----------------|-----------------|-----------------|
B|-----------------|-----------------|-----------------|-----------------|
G|-------0-------0-|-------0-------0-|-------2-------0-|-------2-------0-|
D|---0h2-----0h2---|---0h2-----0h2---|---0h2-----0h2---|---0h2-----0h2---|
A|-3-------3-------|-3-------3-------|-0-------0-------|-0-------0-------|
E|-----------------|-----------------|-----------------|-----------------|

e|-----------------|-----------------|-----------------|-----------------|
B|-------1-------1-|-------1-------1-|-------0-------0-|-------0-------0-|
G|-----2-------2---|-----2-------2---|-----0-------0---|-----0-------0---|
D|---3-------3-----|---3-------3-----|---2-------2-----|---2-------2-----|
A|-3-------3-------|-3-------3-------|-3-------3-------|-3-------3-------|
E|-----------------|-----------------|-----------------|-----------------|


[VERSE x2]
(same as INTRO)
0.50 - 1.19
"Been rusting in the rubble..."
e|-----------------|-----------------|-----------------|-----------------|
B|-----------------|-----------------|-----------------|-----------------|
G|-------0-------0-|-------0-------0-|-------2-------0-|-------2-------0-|
D|---0h2-----0h2---|---0h2-----0h2---|---0h2-----0h2---|---0h2-----0h2---|
A|-3-------3-------|-3-------3-------|-0-------0-------|-0-------0-------|
E|-----------------|-----------------|-----------------|-----------------|

e|-----------------|-----------------|-----------------|-----------------|
B|-------1-------1-|-------1-------1-|-------0-------0-|-------0-------0-|
G|-----2-------2---|-----2-------2---|-----0-------0---|-----0-------0---|
D|---3-------3-----|---3-------3-----|---2-------2-----|---2-------2-----|
A|-3-------3-------|-3-------3-------|-3-------3-------|-3-------3-------|
E|-----------------|-----------------|-----------------|-----------------|


[PRE-CHORUS x2]
1.20 - 1.52
"Saying float like an eagle..."
e|-------1-------1-|-------1-------1-|-------3-------3-|-------3-------3-|
B|-----3-------3---|-----3-------3---|-----0-------0---|-----0-------0---|
G|---2-------2-----|---2-------2-----|---0-------0-----|---0-------0-----|
D|-0-------0-------|-0-------0-------|-0-------0-------|-0-------0-------|
A|-----------------|-----------------|-----------------|-----------------|
E|-----------------|-----------------|-----------------|-----------------|

e|-----------------|-----------------|-----------------|-----------------|
B|-------1-------1-|-------1-------1-|-------1-------1-|-------1-------1-|
G|-----2-------2---|-----2-------2---|-----2-------2---|-----2-------2---|
D|---2-------2-----|---2-------2-----|---3-------3-----|---3-------3-----|
A|-0-------0-------|-0-------0-------|-3-------3-------|-3-------3-------|
E|-----------------|-----------------|-----------------|-----------------|


[CHORUS x2]
1.53 - 2.23
"Now I'm hyp, hypnotised..."
e|-0---0--0-0-0--0--0-0-|-0---0--0-0-0--0--0-0-|-1---1--1-1-1--1--1-1-|-0---0--0-0-0--0--0-0-|
B|-1---1--1-1-1--1--1-1-|-1---1--1-1-1--1--1-1-|-1---1--1-1-1--1--1-1-|-1---1--0-0-0--0--0-0-|
G|-0---0--0-0-0--0--0-0-|-2---2--2-2-2--2--2-2-|-2---2--2-2-2--2--2-2-|-0---0--0-0-0--0--0-0-|
D|-2---2--2-2-2--2--2-2-|-2---2--2-2-2--2--2-2-|-3---3--3-3-3--3--3-3-|-2---2--2-2-2--2--2-2-|
A|-3---3--3-3-3--3--3-3-|-0---0--0-0-0--0--0-0-|-3---3--3-3-3--3--3-3-|-3---3--2-2-2--2--2-2-|
E|----------------------|----------------------|----------------------|----------------------|
   D   D  U U D  D  D U   D   D  U U D  D  D U   D   D  U U D  D  D U   D   D  U U D  D  D U


[VERSE b x2]
(same as CHORUS)
2.24 - 2.55
"It's easy to be lethal..."
e|-0---0--0-0-0--0--0-0-|-0---0--0-0-0--0--0-0-|-1---1--1-1-1--1--1-1-|-0---0--0-0-0--0--0-0-|
B|-1---1--1-1-1--1--1-1-|-1---1--1-1-1--1--1-1-|-1---1--1-1-1--1--1-1-|-1---1--0-0-0--0--0-0-|
G|-0---0--0-0-0--0--0-0-|-2---2--2-2-2--2--2-2-|-2---2--2-2-2--2--2-2-|-0---0--0-0-0--0--0-0-|
D|-2---2--2-2-2--2--2-2-|-2---2--2-2-2--2--2-2-|-3---3--3-3-3--3--3-3-|-2---2--2-2-2--2--2-2-|
A|-3---3--3-3-3--3--3-3-|-0---0--0-0-0--0--0-0-|-3---3--3-3-3--3--3-3-|-3---3--2-2-2--2--2-2-|
E|----------------------|----------------------|----------------------|----------------------|
   D   D  U U D  D  D U   D   D  U U D  D  D U   D   D  U U D  D  D U   D   D  U U D  D  D U


[PRE-CHORUS x2]
2.56 - 3.27
"and threading the needle..."
e|-1---1--1-1-1--1--1-1-|-3---3--3-3-3--3--3-3-|-0---0--0-0-0--0--0-0-|-1---1--1-1-1--1--1-1-|
B|-3---3--3-3-3--3--3-3-|-3---3--3-3-3--3--3-3-|-1---1--1-1-1--1--1-1-|-1---1--1-1-1--1--1-1-|
G|-2---2--2-2-2--2--2-2-|-0---0--0-0-0--0--0-0-|-2---2--2-2-2--2--2-2-|-2---2--2-2-2--2--2-2-|
D|-0---0--0-0-0--0--0-0-|-0---0--0-0-0--0--0-0-|-2---2--2-2-2--2--2-2-|-3---3--3-3-3--3--3-3-|
A|----------------------|-2---2--2-2-2--2--2-2-|-0---0--0-0-0--0--0-0-|-3---3--3-3-3--3--3-3-|
E|----------------------|-3---3--3-3-3--3--3-3-|----------------------|----------------------|
   D   D  U U D  D  D U   D   D  U U D  D  D U   D   D  U U D  D  D U   D   D  U U D  D  D U


[CHORUS x2]
3.28 - 4.00
"Now I'm hyp, hypnotised..."
e|-0---0--0-0-0--0--0-0-|-0---0--0-0-0--0--0-0-|-1---1--1-1-1--1--1-1-|-0---0--0-0-0--0--0-0-|
B|-1---1--1-1-1--1--1-1-|-1---1--1-1-1--1--1-1-|-1---1--1-1-1--1--1-1-|-1---1--0-0-0--0--0-0-|
G|-0---0--0-0-0--0--0-0-|-2---2--2-2-2--2--2-2-|-2---2--2-2-2--2--2-2-|-0---0--0-0-0--0--0-0-|
D|-2---2--2-2-2--2--2-2-|-2---2--2-2-2--2--2-2-|-3---3--3-3-3--3--3-3-|-2---2--2-2-2--2--2-2-|
A|-3---3--3-3-3--3--3-3-|-0---0--0-0-0--0--0-0-|-3---3--3-3-3--3--3-3-|-3---3--2-2-2--2--2-2-|
E|----------------------|----------------------|----------------------|----------------------|
   D   D  U U D  D  D U   D   D  U U D  D  D U   D   D  U U D  D  D U   D   D  U U D  D  D U


[INTERLUDE x4]
(same as INTRO)
4.01 - 5.03
e|-----------------|-----------------|-----------------|-----------------|
B|-----------------|-----------------|-----------------|-----------------|
G|-------0-------0-|-------0-------0-|-------2-------0-|-------2-------0-|
D|---0h2-----0h2---|---0h2-----0h2---|---0h2-----0h2---|---0h2-----0h2---|
A|-3-------3-------|-3-------3-------|-0-------0-------|-0-------0-------|
E|-----------------|-----------------|-----------------|-----------------|

e|-----------------|-----------------|-----------------|-----------------|
B|-------1-------1-|-------1-------1-|-------0-------0-|-------0-------0-|
G|-----2-------2---|-----2-------2---|-----0-------0---|-----0-------0---|
D|---3-------3-----|---3-------3-----|---2-------2-----|---2-------2-----|
A|-3-------3-------|-3-------3-------|-3-------3-------|-3-------3-------|
E|-----------------|-----------------|-----------------|-----------------|


[CHORUS x2]
"Now I'm hyp, hypnotised..."
5.04 - 5.37
e|-0---0--0-0-0--0--0-0-|-0---0--0-0-0--0--0-0-|-1---1--1-1-1--1--1-1-|-0---0--0-0-0--0--0-0-|
B|-1---1--1-1-1--1--1-1-|-1---1--1-1-1--1--1-1-|-1---1--1-1-1--1--1-1-|-1---1--0-0-0--0--0-0-|
G|-0---0--0-0-0--0--0-0-|-2---2--2-2-2--2--2-2-|-2---2--2-2-2--2--2-2-|-0---0--0-0-0--0--0-0-|
D|-2---2--2-2-2--2--2-2-|-2---2--2-2-2--2--2-2-|-3---3--3-3-3--3--3-3-|-2---2--2-2-2--2--2-2-|
A|-3---3--3-3-3--3--3-3-|-0---0--0-0-0--0--0-0-|-3---3--3-3-3--3--3-3-|-3---3--2-2-2--2--2-2-|
E|----------------------|----------------------|----------------------|----------------------|
   D   D  U U D  D  D U   D   D  U U D  D  D U   D   D  U U D  D  D U   D   D  U U D  D  D U


[INTRO a]
5.38 - Fade to end
"...now it's sunrise"
e|-----------------|-----------------|
B|-----------------|-----------------|
G|-------0-------0-|-------0-------0-|
D|---0h2-----0h2---|---0h2-----0h2---|
A|-3-------3-------|-3-------3-------|
E|-----------------|-----------------|
            
Submit corrections


        Hypnotised  lessons Hard to play? Try these video lessons and learn fast Hypnotised  lessons
        
↑ Back to top | Tablatures and chords for acoustic guitar and electric guitar, ukulele, drums are parodies/interpretations of the original songs. You may use it for private study, scholarship, research or language learning purposes only