Home » C » Coldplay »

Coldplay - God Put A Smile Up On Your Face Bass

Artists:  A B C D E F G H I J K L M N O P Q R S T U V W X Y Z # 

God Put A Smile Up On Your Face Bass

(ver. 2) Click to play this song!
Coldplay
 Rating:
4/5 (4 votes)
                -------------------------------------------------------------------------------
                             God Put a Smile Upon Your Face - Coldplay
-------------------------------------------------------------------------------

I e-mailed the guy who wrote this tab to tell him that he only needed to change 
one-or-two bits in the tab but he didnt so im just gonna do it for him...

Intro: Wait for bass to come in

G|--------------------|
D|-11----------11-----|
A|---------9\10---10--|
E|-----9-9------------|
x24

G|---------------|-----------------|-----------------|-----------------|
D|---------------|-----------------|-----------------|-----------------|
A|---------------|-----------------|---7-7-7-7-7-7-7-|---9-9-9-9-9-9-9-|
E|-5--5--5-5-5-5-|---5-5-5-5-5-5-5-|-----------------|-----------------|

G|---------------|-----------------|-----------------|-----------------|
D|-7--7--7-7-7-7-|---7-7-7-7-7-7-7-|-----------------|-----------------|
A|---------------|-----------------|---7-7-7-7-7-7-7-|---9-9-9-9-9-9-9-|
E|---------------|-----------------|-----------------|-----------------|

G|---------------|-----------------|-----------------|-----------------|
D|---------------|-----------------|-----------------|-----------------|
A|---------------|-----------------|---7-7-7-7-7-7-7-|---9-9-9-9-9-9-9-|
E|-5--5--5-5-5-5-|---5-5-5-5-5-5-5-|-----------------|-----------------|

G|---------------|-----------------|-----------------|-----------------|
D|-7--7--7-7-7-7-|---7-7-7-7-7-7-7-|-----------------|----------11-----|
A|---------------|-----------------|---7-7-7-7-7-7-7-|---9-9-9-9--11---|
E|---------------|-----------------|-----------------|--------------9--|

G|--------------------|
D|-11----------11-----|
A|---------9\10---10--|
E|-----9-9------------|
x24

G|---------------|-----------------|-----------------|-----------------|
D|---------------|-----------------|-----------------|-----------------|
A|---------------|-----------------|---7-7-7-7-7-7-7-|---9-9-9-9-9-9-9-|
E|-5--5--5-5-5-5-|---5-5-5-5-5-5-5-|-----------------|-----------------|

G|---------------|-----------------|-----------------|-----------------|
D|-7--7--7-7-7-7-|---7-7-7-7-7-7-7-|-----------------|-----------------|
A|---------------|-----------------|---7-7-7-7-7-7-7-|---9-9-9-9-9-9-9-|
E|---------------|-----------------|-----------------|-----------------|

G|---------------|-----------------|-----------------|-----------------|
D|---------------|-----------------|-----------------|-----------------|
A|---------------|-----------------|---7-7-7-7-7-7-7-|---9-9-9-9-9-9-9-|
E|-5--5--5-5-5-5-|---5-5-5-5-5-5-5-|-----------------|-----------------|

G|---------------|-----------------|-----------------|-----------------|
D|-7--7--7-7-7-7-|---7-7-7-7-7-7-7-|-----------------|----------11-----|
A|---------------|-----------------|---7-7-7-7-7-7-7-|---9-9-9-9--11---|
E|---------------|-----------------|-----------------|--------------9--|

G|--------------------|
D|--------------------|
A|----7~~6~~5~~-------|
E|-9~~----------------|
x2

G|--------------------|
D|-11----------11-----|
A|---------9\10---10--|
E|-----9-9------------|
x8

G|------------------------------------------------------------------------------------|
D|-11-11-11-11-11-11-11-11-11-11-11-11-11-11-11-11-9-9-9-9-9-9-9-9-9-9-9-9-9-9-9-9----|
A|------------------------------------------------------------------------------------|
E|------------------------------------------------------------------------------------|
x4

G|-------------------|
D|-11----------------|
A|-------------------|
E|-------------------|

No bass for outro


| /  slide up
| \  slide down
| h  hammer-on
| p  pull-off
| ~  vibrato
| +  harmonic
| x  Mute note
===============================================================================
            
Submit corrections

↑ Back to top | Tablatures and chords for acoustic guitar and electric guitar, ukulele, drums are parodies/interpretations of the original songs. You may use it for private study, scholarship, research or language learning purposes only