» » »

Coldplay - Ghost Story Tabs

Artists:  A B C D E F G H I J K L M N O P Q R S T U V W X Y Z # 

Ghost Story Tabs

(ver. 2) Click to play this song!
Coldplay
 Rating:
2.8/5 (25 votes)

 Ghost Story  lessons Tabs too difficult? Try these video lessons and learn fast
 
                   D5      Dsus4 D5  Dsus4           C(om5)        G(om5) Bm(Om5)
e|---------------------------------------------------------------------------|
B|-----------------------------------------------------4-4-4-4-2-2-2---------|
G|-----------------------------------------------------0-0-0-0-0-0-0---------|
D|-7---7---4-5---7---5-5-4-5-4-5-4---2---2---2-2-2---------------------------|
A|-5---5---5-5---5---5-5-5-5-5-5-5---3---3---3-3-3-2-------------------------|
E|-------------------------------------------------3-------------------------|


                                                           Maybe I'm just a 
e|---------------------------------------------------------------------------|
B|-----------------------------------------------------4-4-4-4-2-2-2---------|
G|-----------------------------------------------------0-0-0-0-0-0-0---------|
D|-7---7---4-5---7---5-5-4-5-4-5-4---2---2---2-2-2---------------------------|
A|-5---5---5-5---5---5-5-5-5-5-5-5---3---3---3-3-3-2-------------------------|
E|-------------------------------------------------3-------------------------|
   ghost.              Disappear when anybody's close.     Go through you when you 
e|---------------------------------------------------------------------------|
B|---------------------------------------------------------------------------|
G|---------------------------------------------------------------------------|
D|-7---7---4-5---7---5-5-4-5-4-5-4---2---2---2-2-2---------------------------|
A|-5---5---5-5---5---5-5-5-5-5-5-5---3---3---3-3-3-2---2-2-2-2-2-2-2---------|
E|-------------------------------------------------3---3-3-3-3-3-3-3---------|
   try to hold             Try to hold me near             Maybe I'm just a... 
e|---------------------------------------------------------------------------|
B|---------------------------------------------------------------------------|
G|---------------------------------------------------------------------------|
D|-7---7---4-5---7---5-5-4-5-4-5-4---7---7---4-5---7---5-5-4-5-4-5-4---------|
A|-5---5---5-5---5---5-5-5-5-5-5-5---5---5---5-5---5---5-5-5-5-5-5-5---------|
E|---------------------------------------------------------------------------|

   ghost.              Emptier than anybody knows.         Maybe I'm on the
e|---------------------------------------------------------------------------|
B|---------------------------------------------------------------------------|
G|---------------------------------------------------------------------------|
D|-7---7---4-5---7---5-5-4-5-4-5-4---2---2---2-2-2---------------------------|
A|-5---5---5-5---5---5-5-5-5-5-5-5---3---3---3-3-3-2---2-2-2-2-2-2-2---------|
E|-------------------------------------------------3---3-3-3-3-3-3-3---------|
   ropes                 Or I'm not even here                  Yeah!
e|-----------------------------------------------------0-0-0-0-0-------------|
B|-----------------------------------------------------0-0-0-0-0-------------|
G|-----------------------------------------------------5-5-5-5-5-------------|
D|-7---7---4-5---7---5-5-4-5-4-5-4---7---7---4-5---7---5-5-5-5-5-------------|
A|-5---5---5-5---5---5-5-5-5-5-5-5---5---5---5-5---5---3-3-3-3-3-------------|
E|-----------------------------------------------------3-3-3-3-3-------------|



The rythm is: 
   Asus2                           Cma7          Em7 
                       Every...    walk through walls    More walls appear
e|-0---0-----0---0---0-0---0---0---0---0-----0---0---0-0-0-0-0-0-------------|
B|-0---0-----0---0---0-0---0---0---0---0-----0---0---0-0-0-0-0-0-------------|
G|-7---7-----7---7---7-7---7---7---5---5-----5---4---4-4-4-4-4-4-------------|
D|-7---7-----7---7---7-7---7---7---5---5-----5---5---5-5-5-5-5-5-------------|
A|-5---5-----5---5---5-5---5---5---3---3-----3---5---5-5-5-5-5-5-------------|
E|-5---5-----5---5---5-5---5---5---3---3-----3---0---0-0-0-0-0-0-------------|


Asus2                Cma7         
 Every time I try to walk through walls
Em7                Asus2
 More walls appear
                             Cma7 
 What's the point of feeling love for you
Em7                               Asus2
 When you don't believe I'm here?
                               Cma7
 What's the point of trying to raise your voice
Em7                    Asus2 
 If no one ever hears?
                     Cma7
 Every time I try to pull you close
Em7 
 You disappear


D5 Dsus4 D5 Dsus4 C(om5) G(om5) Bm(Om5)          

 Maybe I'm a ghost
 Just a whisper in a puff of smoke
 A secret that nobody knows
 No one will ever hear
 
  Or maybe I'm a ghost
 A specter on a roller coaster
A thorn without a rose
 Just something people fear



Cma7    Asus2
 Yeah!
                            Cma7
 And every time I thought I walk through walls
Em7                    Asus2
 It's all become clear
                             Cma7
 What's the point of feeling love for you
Em7                               Asus2
 When you don't believe I'm here?
                          Cma7
 What's the point saying "Rescue me!"
Em7                     Asus2
 If no one ever hears?
                     Cma7
 Every time I try to pull you close
Em7            Asus2
 You disappear
                     Cma7
 Every time I try to pull you close
Em7            Asus2
 You disappear
 
D5 Dsus4 D5 Dsus4 C(om5) G(om5) Bm(Om5) x4                
                         O--o-o-oh

Cma7    Asus2    Cma7    Em7    Asus2    Cma7    Em7      

Asus2                       Cma7
 And every time I thought I walk through walls
Em7                     Asus2 
 It's all become clear
                     Cma7
 Every time I try to pull you close
Em7             Asus2 
 You disappear
                     Cma7
 Every time I try to pull you close
Em7
 You disappe...
            
Submit corrections


        Ghost Story  lessons Hard to play? Try these video lessons and learn fast Ghost Story  lessons
        
↑ Back to top | Tablatures and chords for acoustic guitar and electric guitar, ukulele, drums are parodies/interpretations of the original songs. You may use it for private study, scholarship, research or language learning purposes only