» » »

Coldplay - Fun Tabs

Artists:  A B C D E F G H I J K L M N O P Q R S T U V W X Y Z # 

Fun Tabs

(ver. 2) Click to play this song!
Coldplay
 Rating:
4.3/5 (9 votes)

 Fun  lessons Tabs too difficult? Try these video lessons and learn fast
 
                [Intro]

(Grab chords positions - let most notes ring)
e|--------------------------------------------------------------------------|
B|-------5-------5-------5-------5---------5-------------5------------------|
G|-4/5h7------5-------4-------7------4/5h7------4-----5------------7----4/5-|
D|---------7-------5-------5-----------------5-----7-----------7------------|
A|---------------------------------------------------------8----------------|
E|--------------------------------------------------------------------------|

e|--------------------------------------------------------------------------|
B|----5-------5-------5-------5-----------5-------------5-------------------|
G|h7-------5-------4-------7-------4/5h7-------4-----5------------7--5------|
D|------7-------5-------5-------------------5-----7-----------7-------------|
A|---------------------------------------------------------8----------------|
E|--------------------------------------------------------------------------|

e|------------------------------------------------------------------------------|
B|----5-6-------6--------6--------6--6-5-----------5--------5--------5------5-6-|
G|-7---------5--------5--------5----------5-----5--------5--------5-----5-7-----|
D|--------7--------5--------5----------------5--------7--------7----------------|
A|------------------------------------------------------------------------------|
E|------------------------------------------------------------------------------|

e|---------------------------------------------------------------------------|
B|-------6---------6---------6----6-5-------------5---------5----------5-----|
G|----5--------5---------5-------------5------5----------5---------5---------|
D|-7--------5---------5-------------------5----------7---------7-------------|
A|---------------------------------------------------------------------------|
E|---------------------------------------------------------------------------|            
Submit corrections


        Fun  lessons Hard to play? Try these video lessons and learn fast Fun  lessons
        
↑ Back to top | Tablatures and chords for acoustic guitar and electric guitar, ukulele, drums are parodies/interpretations of the original songs. You may use it for private study, scholarship, research or language learning purposes only