» » »

Coldplay - Death And All His Friends Tabs

Artists:  A B C D E F G H I J K L M N O P Q R S T U V W X Y Z # 

Death And All His Friends Tabs

(ver. 4) Click to play this song!
Coldplay
 Rating:
4.4/5 (14 votes)

 Death And All His Friends lessons Tabs too difficult? Try these video lessons and learn fast
 
                [Piano Intro}

"All winter we got carried away..."

e|---------------------------------------------------------------|
B|---------------------------------------------------------------|
G|----------------7--5--5-8-5-3---3------------------------------|
D|------------------------------5---5-3--3-5-3-------------------| x2
A|-6--6-8-10--6-6-------------------------------6----------------|
E|---------------------------------------------------------------|

e|---------------------------------------------------------------|
B|---------------------------------------------------------------|
G|-7--5--5-8-5-3---3---------------------------------------------|
D|---------------5---5-3--3-5-3----------------------------------|
A|-------------------------------6-------------------------------|
E|---------------------------------------------------------------|


[Guitar Part 1]

e|-15------------------------------------------------------------|
B|----16---------------------------------------------------------|
G|--------------15-----------------------------------------------|
D|---------17---------15h17-17-17-17-15-13-15h17-15-15-17-15--13-|
A|---------------------------------------------------------------|
E|---------------------------------------------------------------|

e|-15---------------------------------------------------------------------------------------------|
B|----16--------15b-------------------------------------------------------------------------------|
G|---------17-------------------------------------------------------------------------------------|
D|--------------------15h17-17-17-17-15-13-15h17-15-15-17-15--13------------------------13--------|
A|------------------------------------------------------------------------------------------------|
E|------------------------------------------------------------------------------------------------|

[Guitar Part 2]

"Try..."

e|------------------------------------------------------------------------------------------------|
B|------------------------------------------------------------------------------------------------|
G|---------------------------------------------------------------------------5---5----------------|
D|-8-8-6p5-8-8-6p5-8-8-6p5--8-5-8-5--6p5-8-8-6p5----8-8-6p5-8-8-6p5-8-8-6p5----5---5--6p5-8-8-6p5-| x2
A|------------------------------------------------------------------------------------------------|
E|------------------------------------------------------------------------------------------------|

e|---------------------------------------------------------------|
B|---------------------------------------------------------------|
G|---------------------------------------------------------------|
D|-8/10/12--13-13-13-13-13-13--12-12-12-12-12-12\----------------|
A|---------------------------------------------------------------|
E|---------------------------------------------------------------|

e|------------------------------------------------------------------------------------------------|
B|------------------------------------------------------------------------------------------------|
G|---------------------------------------------------------------------------5---5----------------|
D|-8-8-6p5-8-8-6p5-8-8-6p5--8-5-8-5--6p5-8-8-6p5----8-8-6p5-8-8-6p5-8-8-6p5----5---5--6p5-8-8-6p5-|
A|------------------------------------------------------------------------------------------------|
E|------------------------------------------------------------------------------------------------|

e|---------------------------------------------------------------|
B|---------------------------------------------------------------|
G|---------------------------------------------------------------|
D|-8/10/12--13-13-13-13-13-13--12-12-12-12-12-12\----------------|
A|---------------------------------------------------------------|
E|---------------------------------------------------------------|

e|---------------------------------------------------------------|
B|---------------------------------------------------------------|
G|---------------------------------------------------------------|
D|--8-8-6p5-8-8-6p5-8-8-6p5--8-5-8-5--6p5-8-8-6p5----------------|
A|---------------------------------------------------------------|
E|---------------------------------------------------------------|

[Guitar Part 3/Outro}

e|---------------------------------------------------------------------------------------------------|
B|-15-15-13-13--13-13--13-16-16-15-15--15-15--15-16-18-20-20--20-20--20-15-15-13-13--13-13--13-15b15-|
G|---------------------------------------------------------------------------------------------------|
D|---------------------------------------------------------------------------------------------------|
A|---------------------------------------------------------------------------------------------------|
E|---------------------------------------------------------------------------------------------------|

e|---------------------------------------------------------------------------------------------|
B|-13-13--13-13--13-16-16-15-15--15-15--15-16-18-20-20--20-20--20-15-15-13-13--13-13--13-15b15-|
G|---------------------------------------------------------------------------------------------|
D|---------------------------------------------------------------------------------------------|
A|---------------------------------------------------------------------------------------------|
E|---------------------------------------------------------------------------------------------|

"No I don't want to battle from begining to end..."
e|---------------------------------------------------------------------------------------------|
B|-13-13--13-13--13-16-16-15-15--15-15--15-16-18-20-20--20-20--20-15-15-13-13--13-13--13-15b15-|
G|---------------------------------------------------------------------------------------------|
D|---------------------------------------------------------------------------------------------| x2
A|---------------------------------------------------------------------------------------------|
E|---------------------------------------------------------------------------------------------|
            
Submit corrections


        Death And All His Friends lessons Hard to play? Try these video lessons and learn fast Death And All His Friends lessons
        
↑ Back to top | Tablatures and chords for acoustic guitar and electric guitar, ukulele, drums are parodies/interpretations of the original songs. You may use it for private study, scholarship, research or language learning purposes only