» » »

Coldplay - Beautiful World Chords

Artists:  A B C D E F G H I J K L M N O P Q R S T U V W X Y Z # 

Beautiful World Chords

(ver. 2) Click to play this song!
Coldplay
 Rating:
3.1/5 (7 votes)

 Beautiful World lessons Tabs too difficult? Try these video lessons and learn fast
 
                progressions that are repeated throughout so it shouldnt be too difficult to pick up.
me 10 minutes :p

Just another thing, where i've put two notes next to each other, e.g. 1+0, this means
you alternate between them. Usually: 0--1-0-0, such as at the end of the verse sections
similarly for the chord in the chorus.

Where the note alternates for the intro chord, and the same for in the verse i believe
goes like this: 2-2-0--2--2-0--2--2--0--2--2-0-0 however this varies sometimes so your
gonna have to kinda figure that out as you go along. Enjoy! :D its a "beautiful" song :P

Intro:

Alternate between these two chords accordingly to how you strum them:

|---0---0------------|
|---1---1------------|
|---2---0   ---------| switching finger accordingly
|---3---3------------|
|---0---0------------|
|---x---x------------|

Progression 1 (verse + instrumental):

|---0------0------0---------------------------------------------------|
|---1------1------1+0  -----------------------------------------------|alternate at the 
of every verse section
|---2------0------2+0  -------alternate accordingly as done in intro--|
|---2------2------3---------------------------------------------------|
|---0------3------0---------------------------------------------------|
|---x------x------x---------------------------------------------------|

This is then repeated however many times required in the verse or instrumental sections.

Progression 2 (chorus):

|---1------0------3------1------0---|
|---3------1------1+0----3------1---|
|---2------2------0------2------2+0-|
|---0------2------0------0------3---|
|---x------0------2------x------0---|
|---x------x------3------x------x---|

Outro (there is a slight tweek at the end but nothing major!!!):

on the last chord of the whole song:

|-------0---0--|
|-----------1--|
|-----2-----2--|
|---3-------3--|
|-----------0--|
|-----------x--|

Hope this works for you. Works for me!

Constructed by:
Lord 0mega
            
Submit corrections


        Beautiful World lessons Hard to play? Try these video lessons and learn fast Beautiful World lessons
        
↑ Back to top | Tablatures and chords for acoustic guitar and electric guitar, ukulele, drums are parodies/interpretations of the original songs. You may use it for private study, scholarship, research or language learning purposes only