» » »

Coldplay - Amazing Day Tabs

Artists:  A B C D E F G H I J K L M N O P Q R S T U V W X Y Z # 

Amazing Day Tabs

(ver. 1) Click to play this song!
Coldplay
 Rating:
3.1/5 (26 votes)

 Amazing Day  lessons Tabs too difficult? Try these video lessons and learn fast
 
                Tuning: Standard

Intro
e|----------------------------------------------------------|
B|----------------------------------------------------------|
G|----------------------------------------------------------|   X2
D|----------------------------------------------------------|
A|----------------------------------------------------------|
E|-1\8---8-8-8-8--13/8---8-8-8--1\8---8-8-8-8--13/8---8-8-8-|    


Main Riff (with delay)
e|------------------------------------------------------------------------------------------------------|
B|-------------------------------------------------------------------11-(11)--10-(10)-------------------|
G|-12-(12)--10-(10)--9-(9)--10-(10)--14-(14)--12-(12)--10-(10)--9-(9)------------------12-(12)--10-(10)-|
D|------------------------------------------------------------------------------------------------------|
A|------------------------------------------------------------------------------------------------------|
E|------------------------------------------------------------------------------------------------------|

e|----------------------------------|
B|----------------------------------|
G|-12-(12)--10-(10)--10-(10)--9-(9)-|  ENDING 1
D|----------------------------------|
A|----------------------------------|
E|----------------------------------|

e|------------------------------------------------------------------------------------------------------|
B|-------------------------------------------------------------------11-(11)--10-(10)-------------------|
G|-12-(12)--10-(10)--9-(9)--10-(10)--14-(14)--12-(12)--10-(10)--9-(9)------------------12-(12)--10-(10)-|
D|------------------------------------------------------------------------------------------------------|
A|------------------------------------------------------------------------------------------------------|
E|------------------------------------------------------------------------------------------------------|

e|---------------------------|
B|-/15--13-------------------|
G|---------14--12----12h14---|  ENDING 2
D|---------------------------|  
A|---------------------------|
E|---------------------------|

VERSE 1

 Sat on a roof, named every star.        Shed every bruise and, showed every scar.
(Sat on a roof, your hand in mine, singing.   "Life has a crazy beautiful design.")
e|---------------------------------------------------------------------------------------|
B|---------------------------------------------------------------------------------------|
G|--------------------------14--12-----15-----------------------14-----------12----12h14-|  X2
D|---------------------------------------------------------------------------------------|
A|---------------------------------------------------------------------------------------|
E|---------------------------------------------------------------------------------------|

And time...             Seemed to say       "Forget the world and all its weight"
e|-10-10---10----10-10---10----8-8---8----8-8---8----8-8---8----8-8---8----10-10---10--|
B|-------10--10--------10--10------10-10------10-10------10-10------10-10--------10--10|
G|-------------------------------------------------------------------------------------|
D|-------------------------------------------------------------------------------------|
A|-------------------------------------------------------------------------------------|
E|-------------------------------------------------------------------------------------|

                Here,         I just wanna say 
e|-10-10---10---10-10---10---10-10---10/13--13----12----12----12----12----12----|
B|-------10--10-------10--10---------10/13-----13----13----13----13----13----13-|
G|------------------------------------------------------------------------------|
D|------------------------------------------------------------------------------|
A|------------------------------------------------------------------------------|
E|------------------------------------------------------------------------------|

Amazing day...
e|-----------------------------|
B|------------13/15------------|
G|-------------------14/12-----| X2
D|--------------------------10-|
A|-----------------------------|
E|-----------------------------|

Main Riff (ENDING 1)

VERSE 2

 Sat on a roof, named every star, and       Showed me a place where, you can be who you are.
e|------------------------------------------------------------------------------------------|
B|------------------------------------------------------------------------------------------|
G|--------------------------14--12-----15------------------------------------14----------12-|  
D|------------------------------------------------------------------------------------------|
A|------------------------------------------------------------------------------------------|
E|------------------------------------------------------------------------------------------|

And the view,         the whole milky way.     In your arms,        I just wanna stay
e|------10-10---10----10-10---10----8-8---8----8-8---8----8-8---8----8-8---8----10-10---10--|
B|------------10--10--------10--10------10-10------10-10------10-10------10-10--------10--10|
G|------------------------------------------------------------------------------------------|
D|------------------------------------------------------------------------------------------|
A|------------------------------------------------------------------------------------------|
E|------------------------------------------------------------------------------------------|

          In you arms,        I just wanna sway 
e|-10-10---10---10-10---10---10-10---10/13--13----12----12----12----12----12----|
B|-------10--10-------10--10---------10/13-----13----13----13----13----13----13-|
G|------------------------------------------------------------------------------|
D|------------------------------------------------------------------------------|
A|------------------------------------------------------------------------------|
E|------------------------------------------------------------------------------|
            
Amazing day...
e|-12b13-13------------------|
B|----------13/15------------|
G|-----------------14/12-----| X4
D|------------------------10-|
A|---------------------------|
E|---------------------------|

Main Riff (ENDING 1 and 2)

BRIDGE:

I asked every book,      poetry and chime:  "Can there be breaks in the chaos sometimes?"    
e|------10-10---10----10-10---10----8-8---8----8-8---8----8-8---8----8-8---8----10-10---10--|
B|------------10--10--------10--10------10-10------10-10------10-10------10-10--------10--10|
G|------------------------------------------------------------------------------------------|
D|------------------------------------------------------------------------------------------|
A|------------------------------------------------------------------------------------------|
E|------------------------------------------------------------------------------------------|
       
  Oh, thanks God. You must've heard when I prayed.               Because now I 
e|10-10---10---10-10---10---10-10---10/13--13----12----12----12----12----12----|
B|------10--10-------10--10---------10/13-----13----13----13----13----13----13-|
G|------------------------------------------------------------------------------------------|
D|------------------------------------------------------------------------------------------|
A|------------------------------------------------------------------------------------------|
E|------------------------------------------------------------------------------------------|

   Always            want       to        feel                 this way
e|-------------------------------------------------------------------------------|      
B|-------------------------------------------------------------------------------|
G|-10-10-10-10-10-10-12-12-12-12-12-12-12-14-14-14-14-14-14-14-12-12-12-12-12-12-|  
D|-------------------------------------------------------------------------------|
A|-------------------------------------------------------------------------------|
E|-------------------------------------------------------------------------------|

Amazing day...
e|-12b13-13------------------|
B|----------13/15------------|
G|-----------------14/12-----| X4
D|------------------------10-|
A|---------------------------|
E|---------------------------|

e|----------------------------------------------------------|
B|----------------------------------------------------------|
G|----------------------------------------------------------|   X2
D|----------------------------------------------------------|
A|----------------------------------------------------------|
E|-1\8---8-8-8-8--13/8---8-8-8--1\8---8-8-8-8--13/8---8-8-8-|    

End on F            
Submit corrections


        Amazing Day  lessons Hard to play? Try these video lessons and learn fast Amazing Day  lessons
        
↑ Back to top | Tablatures and chords for acoustic guitar and electric guitar, ukulele, drums are parodies/interpretations of the original songs. You may use it for private study, scholarship, research or language learning purposes only