Home » C » Coldplay »

Coldplay - Amazing Day Bass

Artists:  A B C D E F G H I J K L M N O P Q R S T U V W X Y Z # 

Amazing Day Bass

(ver. 1) Click to play this song!
Coldplay
 Rating:
2.6/5 (23 votes)
                Intro (played on guitar but whatever you can do it on bass if you feel like it):
G|-----------------|------------------|-----------------|------------------|
D|3/10-10-10-10-10-|15\10-10-10-10-10-|3/10-10-10-10-10-|15-14\10-10-10-10-|
A|-----------------|------------------|-----------------|------------------|
E|-----------------|------------------|-----------------|------------------|

G|-----------------|------------------|-----------------|------------------|
D|3/10-10-10-10-10-|15\10-10-10-10-10-|3/10-10-10-10-10-|15\10-10-10-10-10-|
A|-----------------|------------------|-----------------|------------------|
E|-----------------|------------------|-----------------|------------------|

Main Riff:
G|------------|------------|------------|------------|------------|------------|------------|------------|
D|--------5-7-|------------|------------|------------|--------5---|--------3---|------------|------------|
A|8-----------|5-------7h8-|--------3-5-|------------|3---------3-|5---------5-|1---------1-|3-------5-7-|
E|------------|------------|6-----------|3-------5-6-|------------|------------|--------1---|------------|

G|------------|------------|------------|------------|------------|------------|------------|------------|
D|--------5-7-|------------|------------|------------|--------5---|--------3---|------------|------------|
A|8-----------|5-------7h8-|--------3-5-|------------|3---------3-|5---------5-|1---------1-|3-----------|
E|------------|------------|6-----------|3-------5-6-|------------|------------|--------1---|------------|

G|------------|
D|------------|
A|8-----------| 
E|------------|

Verse 1: "And time seemed to say"...
G|------------|------------|------------|------------|------------|------------|------------|------------|
D|------------|------------|------------|------------|------------|------------|------------|------------|
A|------------|------------|------------|------------|------------|------------|------------|------------| 
E|6---------6-|6-----------|8---------8-|8-------8-6-|5---------5-|5-----------|6---------6-|6-----5-----|

G|------------|------------|------------|------------|------------|------------|------------|------------|
D|------------|--------5---|------------|------------|------------|------------|------------|------------|
A|------------|----------5-|3---------3-|3-----------|3-----------|------------|------------|----------7-| 
E|3---------3-|3-----------|------------|--------3-5-|------------|------5-----|6-----------|------------|

Main Riff x1

Verse 2: "And the view, the whole Milky Way
G|------------|------------|------------|------------|------------|------------|------------|------------|
D|------------|------------|------------|------------|------------|------------|------------|------------|
A|------------|------------|------------|------------|------------|------------|------------|------------| 
E|6---------6-|6-----------|8---------8-|8-------8-6-|5---------5-|5-----------|6---------6-|6-----5-----|

G|------------|------------|------------|------------|------------|------------|------------|------------|
D|------------|--------5---|------------|------------|------------|------------|------------|------------|
A|------------|----------5-|3---------3-|3-----------|3-----------|------------|------------|------------| 
E|3---------3-|3-----------|------------|--------3-5-|------------|------5-----|6-----------|------------|

G|------------|------------|------------|------------|
D|------------|------------|------------|------------|
A|3-----------|------------|------------|----------7-| 
E|------------|------5-----|6-----------|------------|

Main Riff x1

Ending: "And I ask every book, poetry and chime"
G|------------|------------|------------|------------|------------|------------|------------|------------|
D|------------|------------|------------|------------|------------|------------|------------|------------|
A|1---------1-|1---------1-|3---------3-|3-------3---|------------|------------|------------|------------| 
E|------------|--------1---|------------|----------6-|5---------5-|5-----------|6---------6-|6-----5-----|

G|------------|------------|------------|------------|------------|------------|------------|------------|
D|------------|--------5---|------------|------------|------------|------------|------------|------------|
A|------------|----------5-|3---------3-|3-----------|------------|------------|------------|------------| 
E|3---------3-|3-----------|------------|--------3-5-|6-6-6-6-6-6-|6-6-6-6-6-6-|6-6-6-6-6-6-|6-6-6-8-8-8-|

G|------------|------------|------------|------------|------------|------------|------------|------------|
D|------------|------------|------------|------------|------------|------------|------------|------------|
A|3-----------|------------|------------|------------|3-----------|------------|------------|------------|
E|------------|------5-----|6-----------|------------|------------|------5-----|6-----------|------------|

Intro x1            
Submit corrections

↑ Back to top | Tablatures and chords for acoustic guitar and electric guitar, ukulele, drums are parodies/interpretations of the original songs. You may use it for private study, scholarship, research or language learning purposes only