» » »

Cold Chisel - When The War Is Over Tabs

Artists:  A B C D E F G H I J K L M N O P Q R S T U V W X Y Z # 

When The War Is Over Tabs

(ver. 2) Click to play this song!
Cold Chisel
 Rating:
4.4/5 (8 votes)

 When The War Is Over lessons Tabs too difficult? Try these video lessons and learn fast
 
                Stave 1:

E|--------------------------------------------------------------------------------------------------------|
B|--------------------------------------------------------------------------------------------------------|
G|--------------------------------7--9--7-----------------------------------------------------------------|
D|--7--7--9--11--11--7--7--9--11-----------11--------7--7/9--9--11--9--7----------------------------------|
A|---------------------------------------------7--9-----------------------9--7/9--7-----------------------|
E|-----------------------------------------------------------------------------------9--7--5--2--5--7--5--|

Stave 2:

E|----------------------------------------------------------------------------------------------------|
B|----------------------------------------------------------------------------------------------------|
G|----------------------------------------------------------------------------------------------------|
D|-----------------7--7--7--7/22--7--7--9--7--9--9--7--11--11--11--14--11--14/16--14--11--14--16--19--|
A|-----------7--9-------------------------------------------------------------------------------------|
E|--5--7--9-------------------------------------------------------------------------------------------|            
Submit corrections


        When The War Is Over lessons Hard to play? Try these video lessons and learn fast When The War Is Over lessons
        
↑ Back to top | Tablatures and chords for acoustic guitar and electric guitar, ukulele, drums are parodies/interpretations of the original songs. You may use it for private study, scholarship, research or language learning purposes only