Home » C » Cody Simpson »

Cody Simpson - Awake All Night Tabs

Artists:  A B C D E F G H I J K L M N O P Q R S T U V W X Y Z # 

Awake All Night Tabs

(ver. 3) Click to play this song!
Cody Simpson
This is the first tab I have ever done! I really liked this song so i decided to
try and do a tab by ear. I also watched his music video closely to see how he
plays the song. I know this tab might not be perfect but if there is anything you
would suggest for it, I would love to hear it!! Just try and get the feel for the
song while you play along with this tab! I hope you liked it and enjoy!! :)

**I FIXED THE SOLO BECAUSE I REALIZED IT WAS WRONG. ALSO, DISREGARD MY COMMENT
BECAUSE I JUST REALIZED I COULD FIX IT! LMAO! I HOPE THIS IS RIGHT!!**

**STANDARD TUNING AND NO CAPO USED**

CHORDS USED:
F Chord:                   C Chord:                       D# Chord:                  A# Chord:
E[-8-]                        E[-8-]                        E[-6-]                       E[-6-]
B[-10-]                       B[-8-]                        B[-8-]                       B[-6-]
G[-10-]                       G[-9-]                        G[-8-]                       G[-7-]
D[-10-]                       D[-10-]                       D[-8-]                       D[-8-]
A[-8-]                        A[-10-]                       A[-6-]                       A[-8-]
E[-8-]                        E[-8-]                        E[-6-]                       E[-6-]



VERSE:
Chords:
F Chord --> C Chord --> D# Chord --> A# chord
**hold the A# Chord the last time it comes around, each time you play the verse and let it ring**
**H= hit strings**
Finger Plucking Pattern:
E[--------X--H-]
B[-X---------H-]
G[-----X-----H-]
D[-----------H-]
A[-X---------H-]
E[-----------H-]



SOLO:
**()=let it ring; bend up and down**
**h= hammer on**
E[-------------------------------------------------------------------------------------------]
B[-----------------(8)------------------(6)-------------13-(8)-------------------------------]
G[-12-12h14-12h14----12-12h14-12h14-----12-12h14-12------12-12h14-12h14-12-9-----------------]
D[-------------------------------------------------------------------------------12-9--------]
A[--------------------------------------------------------------------------------------(8)--]
E[--------------------------------------------------------------------------------------(8)--]



CHORUS:
Chords used:
F Chord --> C Chord --> D# Chord --> A# Chord
**hold the A# Chord the last time it comes around, each time you play the chorus and let it ring**
Strumming:
1)DOWN *pause for one count* UP DOWN and then change chords
OR
2) use the same plucking pattern that you use for the verse



ORDER:
Verse X2
Solo
Verse X7
Chorus X5
Solo
Verse X7
Chorus X5
Solo X2
then slowly strum the F Chord DOWN the strings
            
Submit corrections

↑ Back to top | Tablatures and chords for acoustic guitar and electric guitar, ukulele, drums are parodies/interpretations of the original songs. You may use it for private study, scholarship, research or language learning purposes only