» » »

Cobra Starship - Church Of Hot Addiction Bass

Artists:  A B C D E F G H I J K L M N O P Q R S T U V W X Y Z # 

Church Of Hot Addiction Bass

(ver. 1) Click to play this song!
Cobra Starship
 Rating:
4.3/5 (6 votes)

 Church Of Hot Addiction lessons Tabs too difficult? Try these video lessons and learn fast
 
                -------------------------------------------------------------------------------
-------------------------------------------------------------------------------
Tuning: standard

Intro
G|9-7---7---------------------|
D|----9---9-7-9-7----7--------|
A|----------------10---10-9---|
E|----------------------------|

Verse
G|--------------------|
D|--------------------|
A|--------------------|
E|00-3-00--0-0--33333-| x8

Pre-Chorus pause for a few seconds
G|-------------------------|
D|-------99999999----------|
A|-------------------------|
E|-------------------------|

Chorus
G|-----------------------------------------------------------------------------|
D|-22222222--------------------------------22222222----------------------------|
A|----------33333333----------5555-5p3-5p3----------33333333----------55555555-|
E|-------------------33333333--------------------------------33333333----------|
 
"My light is electric.."        pre-verse
G|-----------------------|     |--------|
D|22---------------------|     |--------|
A|---33-3------55555-----|     |---7\---|
E|--------33-3-----------| x4  |--------|

Verse x8

Pre-Chorus
G|-----------------------|
D|------------99999999---|
A|7777-7\----------------|
E|-----------------------|

Chorus
G|-----------------------------------------------------------------------------|
D|-22222222--------------------------------22222222----------------------------|
A|----------33333333----------5555-5p3-5p3----------33333333----------55555555-|
E|-------------------33333333--------------------------------33333333----------|

G|-------------------------------------------------------------------------|
D|22222222----------55555555----------22222222----------55555555-7777-7575-|
A|---------33333333----------55555555----------33333333--------------------|
E|-------------------------------------------------------------------------|

"My light is electric.."        pre-verse
G|-----------------------|     |------------|
D|22---------------------|     |------------|
A|---33-3------55555-----|     |-77777777-7-|
E|--------33-3-----------| x4  |------------|

Bridge "I got electric eyes..."
G|-------------------------------------------------------------------------------------------------------|
D|---------------------------------------22222222-------------------------------22222222-----------------|
A|7~----0~----------------------------------------33333333----------5555-5p3-5p3---------3333333---------|
E|-----------00000000-55555555-5/121212--------------------33333333------------------------------33333333|

Chorus
G|-----------------------------------------------------------------------------|
D|-22222222--------------------------------22222222----------------------------|
A|----------33333333----------5555-5p3-5p3----------33333333----------55555555-|
E|-------------------33333333--------------------------------33333333----------|

"My light is electric.."        
G|-----------------------|     
D|22---------------------|     
A|---33-3------5555------|     
E|--------33-3-----------| x8  
            
Submit corrections


        Church Of Hot Addiction lessons Hard to play? Try these video lessons and learn fast Church Of Hot Addiction lessons
        
↑ Back to top | Tablatures and chords for acoustic guitar and electric guitar, ukulele, drums are parodies/interpretations of the original songs. You may use it for private study, scholarship, research or language learning purposes only