» » »

Cobra Starship - Church Of Hot Addiction Tabs

Artists:  A B C D E F G H I J K L M N O P Q R S T U V W X Y Z # 

Church Of Hot Addiction Tabs

(ver. 2) Click to play this song!
Cobra Starship
 Rating:
4/5 (4 votes)

 Church Of Hot Addiction lessons Tabs too difficult? Try these video lessons and learn fast
 
                (1)
I tabbed this song out in drop D for you novice guitar player since it is much easier to 
in drop D, but it is ABSOLUTELY NOT NECESSARY.

Intro / Verse
e-------------------------------------|
B-------------------------------------|
G-------------------------------------|
D--2-2---5-2-2---2--2---5-5-5-5-522---|  Repeat as many times as needed
A--2-2---5-2-2---2--2---5-5-5-5-522---|
D--2-2---5-2-2---2--2---5-5-5-5-522---|
                                \|/
                              very fast
Chorus
e-----------------------------------------------------------------|
B-----------------------------------------------------------------|
G-9-9-9-9-9-9-9-9-5-5-5-5-5-5-5-5-----------------7-7-7-7-7-7-7-7-|
D-9-9-9-9-9-9-9-9-5-5-5-5-5-5-5-5-5-5-5-5-5-5-5-5-7-7-7-7-7-7-7-7-|
A-7-7-7-7-7-7-7-7-3-3-3-3-3-3-3-3-5-5-5-5-5-5-5-5-5-5-5-5-5-5-5-5-|
D---------------------------------5-5-5-5-5-5-5-5-----------------|

Post Chorus(hey hey hey my light is electic yeah!)
e---------------------------|
B---------------------------|
G-9-9-x-5-5-------x-7-7-x---|
D-9-9-x-5-5-x-5-5-x-7-7-x---|  Repeat
A-7-7-x-3-3-x-5-5-x-5-5-x---|
D-----------x-5-5-----------|

Bridge: there is a little middle eastern sound riff played which is:
e--5h8p5-5--------------|
B----------8-5-8/10~----|
G-----------------------|
D-----------------------| Repeat
A-----------------------|
D-----------------------|

then:
e-----------------------------------------------------------------|
B-----------------------------------------------------------------|
G-9-9-------------5-5-----------------------------7-7-------------|
D-9-9-------------5-5-------------5-5-------------7-7-------------|
A-7-7-------------3-3-------------5-5-------------5-5-------------|
D---------------------------------5 5-----------------------------|

Order:

Intro
Verse
Chorus
Post Chorus
Verse
Chorus
Post Chorus
Bridge
Chorus
Post Chorus

h: hammer on
p: pull off
~: let ring
x: scratch

that should be about it. let me know if you like it, what it might need improvement on yeah?

i love this song!
            
Submit corrections


        Church Of Hot Addiction lessons Hard to play? Try these video lessons and learn fast Church Of Hot Addiction lessons
        
↑ Back to top | Tablatures and chords for acoustic guitar and electric guitar, ukulele, drums are parodies/interpretations of the original songs. You may use it for private study, scholarship, research or language learning purposes only