» » »

Cobra Starship - Guilty Pleasure Tabs

Artists:  A B C D E F G H I J K L M N O P Q R S T U V W X Y Z # 

Guilty Pleasure Tabs

(ver. 3) Click to play this song!
Cobra Starship
 Rating:
4.3/5 (6 votes)

 Guilty Pleasure lessons Tabs too difficult? Try these video lessons and learn fast
 
                Cobra Starship - Guilty Pleasure
Please rate and comment my first tab on this site

Intro
E-------------------------------------------|
B-------------------------------------------|
G-------------------------------------------|
D--6-6-6-6-------------9-9------------------|
A--4-4-4-4--4---4-6-7--7-7-7--7-9-6---------|
E-------------7-----------------------------|x4

Pre-Chorus
E--------------------------------------------|
B--------------------------------------------|
G--------------------------------------------|
D--11-11-11----------------------------------|
A--9--9--9---9-9-10-11-11-11-6-6-5-4---4-4-4-|
E------------7-7-8--9--9--9--4-4-3-2---2-2-2-|

Chorus
E----------------------------------------------------------|
B----------------------------------------------------------|
G----------------------------------------------------------|
D--2-----10-----11-----4-----6-----7-----2-----7-----9-----|
A--2(x8)-10(x8)-11(x8)-4(x4)-6(x4)-7(x8)-2(x8)-7(x8)-9(x8)-|
E--0-----8------9------2-----4-----5-----0-----5-----7-----|x2

Intro x4
Pre-Chorus
Chorus x2

Theres a break here then you come in with
E--------------------------------------------------------------|
B--------------------------------------------------------------|
G--------------------------------------------------------------|
D--x-x-9s10--10-----11-----4-----6-----7-----2-----7-----9-----|
A--x-x-9s10--10(x8)-11(x8)-4(x4)-6(x4)-7(x8)-2(x8)-7(x8)-9(x8)-|
E--x-x-7s8---8------9------2-----4-----5-----0-----5-----7-----|x3

you can play it the third time as it fades out if you wont

Well Thats It Really Easy Song
Comment and Rate
            
Submit corrections


        Guilty Pleasure lessons Hard to play? Try these video lessons and learn fast Guilty Pleasure lessons
        
↑ Back to top | Tablatures and chords for acoustic guitar and electric guitar, ukulele, drums are parodies/interpretations of the original songs. You may use it for private study, scholarship, research or language learning purposes only