» » »

Cobra Starship - Guilty Pleasure Tabs

Artists:  A B C D E F G H I J K L M N O P Q R S T U V W X Y Z # 

Guilty Pleasure Tabs

(ver. 1) Click to play this song!
Cobra Starship
 Rating:
4.6/5 (9 votes)

 Guilty Pleasure lessons Tabs too difficult? Try these video lessons and learn fast
 
                Intro=Synth

Verse 1: "And I don't even know..."

E------------------------|
B------------------------|
G------------------------|
D------------------------|
A----------67-777-7976---|
E-9-999-979--------------|  x3

E-------------------------------------------|
B-------------------------------------------|
G-------------------------------------------|
D-------------------------------------------|
A----------67-777-76789-99------------------|
E-9-999-979---------------7-789-999-432-227-|

Chorus:

E--------------------------------------------------|
B--------------------------------------------------|
G--------------------------------------------------|
D-99999999-----------------------------------------|
A-777777771010101010101010 111111111111111 44444444|
E---------8 8 8 8 8 8 8 8  9 9 9 9 9 9 9 9 22222222|

E---------------------------------|
B---------------------------------|
G---------------------------------|
D---------------------------------|
A-77777777222222227777777799999999|
E-55555555000000005555555577777777| x2

Verse 2 is same as above

Bridge=Bass except at end, below

A-9 10
E-7 8

Chorus until fade
            
Submit corrections


        Guilty Pleasure lessons Hard to play? Try these video lessons and learn fast Guilty Pleasure lessons
        
↑ Back to top | Tablatures and chords for acoustic guitar and electric guitar, ukulele, drums are parodies/interpretations of the original songs. You may use it for private study, scholarship, research or language learning purposes only