Home » C » Clueso »

Clueso - Barfu Tabs

Artists:  A B C D E F G H I J K L M N O P Q R S T U V W X Y Z # 

Barfu Tabs

(ver. 1) Click to play this song!
Clueso
Clueso - Barfuss


So ich hoffe das stimmt so einigermaßen, hört sich ganz gut an :)
Wer keine Lust hat die ganze Gitarre umzustimmen kann natürlich das Lied einfach einen 
höher spielen und nur die g-Saite einen Halbton hochstimmen.
Viel Spaß mit diesem wunderschönen Song!!!

Tuning: Eb-Ab-Db-G-Bb-Eb

Intro
eb|-----0-----------0-----------0-----------0------------0--------|
Bb|-4-----------4-----------5-----------2------------0------------|
G |---0---0---0---0---0---0---0---0---0---0---0---0----0---0---0--|
Db|---------------------------------------------------------------|
Ab|-2-------2---2-------0---4-------4---0-------0-----------------|
Eb|--------------------------------------------------0-------0----|

eb|-----0-----------0-----------0-------0-~~~-x-|
Bb|-4-----------5-----------2-----------0-~~~-x-|
G |---0---0---0---0---0---0---0---0---0-0-~~~-x-|
Db|-------------------------------------------x-|
Ab|-2-------2---4-------4---0-------0---------x-|
Eb|-------------------------------------0-~~~-x-|

Intro - 2nd Guitar
eb|-<7>----<5>----<12>-----12--|
Bb|-<7>----<5>----<12>----<12>-|
G |-<7>----<5>----<12>----<12>-|  x2
Db|----------------------------|
Ab|----------------------------|
Eb|----------------------------|

Chords - Verse
                1                             2    3
eb|-0---0---0---0----0---0---0----0---0---0---0--0-0---|
Bb|-5-/-7-/-9-\-7----5-/-7-/-9----5-/-7-/-9-\-7--0-0---|
G |-0---0---0---0----0---0---0----0---0---0---0--0-0---|
Db|-6-/-8-/-9-\-8----6-/-8-/-9----6-/-8-/-9-\-8--7-4---|
Ab|-4-/-6-/-7-\-6----4-/-6-/-7----4-/-6-/-7-\-6--7-4---|
Eb|---------0----------------0------------0------5-2---|
listen to the song to get the strum patterns

2nd Guitar during first chord sequence
eb|---4-----4-----4---/-7-----7-----/-12---12---12---9------------|
Bb|-2---2-2---2-2---2-/---5-5---5---/----9----9----9---9-12b14r12-|
G |---------------------------------------------------------------|
Db|---------------------------------------------------------------|
Ab|---------------------------------------------------------------|
Eb|---------------------------------------------------------------|

eb|-4---4---4---/-7-----7---/-12---12---12---12----12----|
Bb|---2---2---2-/---5-5---5-/----9----9----9----10----10-|
G |------------------------------------------------------|
Db|------------------------------------------------------|
Ab|------------------------------------------------------|
Eb|------------------------------------------------------|

eb|-4---4---4---/-7-----7---/-12---12---12---12----------------|
Bb|---2---2---2-/---5-5---5-/----9----9----9----9-12b14r12~~-9-|
G |------------------------------------------------------------|
Db|------------------------------------------------------------|
Ab|------------------------------------------------------------|
Eb|------------------------------------------------------------|

Chords - Chorus 1
eb|---0-0-0---0-0----0-0-0-----|
Bb|---0-5-0---0-0----0-0-0-x---|
G |---0-0-0---0-0-~~-0-0-0-x---|
Db|-/-9-6-7---6-4-~~-4-7-9-x---|
Ab|-/-9-4-7---6-4-~~-4-7-9-x---|
Eb|-/-7---5---4-2-~~-2-5-7-----|

Interlude Chords
eb|-0-0-0-0-0-|
Bb|-5-0-0-0-0-|
G |-0-0-0-0-0-|
Db|-6-9-7-4-2-|
Ab|-4-9-7-4-2-|
Eb|---7-5-2-0-|

Interlude - 2nd Guitar
  |---(quiet & muted)-----------------------------------------------------------|
eb|-12-12-12--11h12p11-9---7h9p7\5h7p5\4h5p4h5p4h5p4h5p4p0----------------------|
Bb|--------------------------------------------------------7-5--7b9r7-5-5-5~~---|
G |-----------------------------------------------------------------------------|
Db|-----------------------------------------------------------------------------|
Ab|-----------------------------------------------------------------------------|
Eb|-----------------------------------------------------------------------------|

Chords - Chorus 2
eb|---0-0-0---0-0----0-5---|
Bb|---0-5-0---0-0----0-5---|
G |---0-0-0---0-0-~~-0-x---|
Db|-/-9-6-7---6-4-~~-4-7---|
Ab|-/-9-4-7---6-4-~~-4-7---|
Eb|-/-7---5---4-2-~~-2-5---|

Chorus 2 - 2nd Guitar
eb|-9--------------------------|
Bb|-12b14~----10p9-7-----------|
G |------------------8-7-8/10--|
Db|----------------------------|
Ab|----------------------------|
Eb|----------------------------|

Lyrics

--Intro--

--Chord sequence with 2nd Guitar--

--Verse 1 (don't play chords 2&3)--
Hier und da komm ich auf die Idee
Ein andern Weg zu gehen
Mal verspielt und mal gefasst
Manchmal macht mir der Nase nach
Einfach das unbeholfene Spaß

--Verse 2 (don't play chords 1&2)--
Beweg mich gerne mal im Kreis
Doch jeder noch so kleine Teich,
sollte verbunden sein zum Meer
Immer wenn ich was neues ausprobier‘
Lauf ich wie Barfuß über Glas

--Chorus 1--
Doch ich fühl mich federleicht
Weil es sich fast immer lohnt
Und so erscheint das nichts so bleibt, wie es ist
Fast schon, wie gewohnt

--Verse 3 (don't play chord 2)--
Wenn mich das Neue dann berührt
Tanz ich zuerst für mich allein
Dann mach ich all die andren wach
Doch immer wenn was neu beginnt
Sagt auch etwas in mir das war’s

--Interlude--

--Chorus 2--
Doch ich fühl mich federleicht
Weil es sich fast immer lohnt
Und so erscheint das nichts so bleibt wie es ist
fast schon wie gewohnt

--End--
            
Submit corrections

↑ Back to top | Tablatures and chords for acoustic guitar and electric guitar, ukulele, drums are parodies/interpretations of the original songs. You may use it for private study, scholarship, research or language learning purposes only